Oops, an error
Loading. Please wait.

The Weekend Whip tab

version 1
version 1

Whole song

  • Rhythm guitar has been tabbed.

Interactive

by Fold
292 views 6 this week
no commentswrite comment
1 2 3 4 5
1 last vote to show rating
add to favorites
×
Save as Personal and add changes to this tab that will be seen only by you. Learn more ›
×
You can save this tab as Personal to edit and correct it or add notes. All changes will be seen only by you. Learn more »
launch autoscroll
font size
0
reset
how to read this tab
guitar tuner
edit
Autoscroll
slow
fast
+/-
esc
set tempo
stop
About this tab version
Rhythm guitar has been tabbed. Was this info helpful? Yes No
Ninjago Theme song

The dead notes (x) in the chorus are optional. 
They allow you to strum up and down without making bad notes.
If you don't want to do that, you don't have to.

[Intro]

e|---------------------------------------------------------------------------|
B|---------------------------------------------------------------------------|
G|-7---7---7---7-------------------------------------------------------------|
D|-7---7---7---7-------------------------------------------------------------| (x4)
A|-5---5---5---5-------------------------------------------------------------|
E|---------------------------------------------------------------------------|

e|---------------------------------------------------------------------------|
B|---------------------------------------------------------------------------|
G|-7-7-7-7-7-7-7-7-----------------------------------------------------------|
D|-7-7-7-7-7-7-7-7-7-7-7-7-7-7-7-7-5-5-5-5-5-5-5-5--7-7-7-7-7----------------| (x2)
A|-5-5-5-5-5-5-5-5-7-7-7-7-7-7-7-7-5-5-5-5-5-5-5-5--7-7-7-7-7----------------|
E|-----------------5-5-5-5-5-5-5-5-3-3-3-3-3-3-3-3--5-5-5-5-5----------------|


[Verse 1]

e|---------------------------------------------------------------------------|
B|---------------------------------------------------------------------------|
G|-7-7-7-7-7-7-7-7-----------------------------------------------------------|
D|-7-7-7-7-7-7-7-7-7-7-7-7-7-7-7-7-5-5-5-5-5-5-5-5-7-7-7-7-7-7-7-7-----------| (x2)
A|-5-5-5-5-5-5-5-5-7-7-7-7-7-7-7-7-5-5-5-5-5-5-5-5-7-7-7-7-7-7-7-7-----------|
E|-----------------5-5-5-5-5-5-5-5-3-3-3-3-3-3-3-3-5-5-5-5-5-5-5-5-----------|
PM[---------------------------------------------------------------]

e|---------------------------------------------------------------------------|
B|---------------------------------------------------------------------------|
G|-7-7-7---------------------------------------------------------------------|
D|-7-7-7---7-7-7---5-5-5-5-5-5-5-5-5-5-5-5-----------------------------------| (x2)
A|-5-5-5---7-7-7---5-5-5-5-5-5-5-5-5-5-5-5-----------------------------------|
E|---------5-5-5---3-3-3-3-3-3-3-3-3-3-3-3-----------------------------------|
PM                [-----------------------]

e|---------------------------------------------------------------------------|
B|---------------------------------------------------------------------------|
G|-7-7-7-7-7-7-7-7-----------------------------------------------------------|
D|-7-7-7-7-7-7-7-7-7-7-7-7-7-7-7-7-5-5-5-5-5-5-5-5-7-7-7-7-7-7-7-7-----------| (x2)
A|-5-5-5-5-5-5-5-5-7-7-7-7-7-7-7-7-5-5-5-5-5-5-5-5-7-7-7-7-7-7-7-7-----------|
E|-----------------5-5-5-5-5-5-5-5-3-3-3-3-3-3-3-3-5-5-5-5-5-5-5-5-----------|
PM[---------------------------------------------------------------]

[Pre-Chorus]

e|---------------------------------------------------------------------------|
B|---------------------------------------------------------------------------|
G|-7-7-7---------------------------------------------------------------------|
D|-7-7-7---7-7-7---5-5-5-5-5-5-5-5-5-5-5-5-----------------------------------|
A|-5-5-5---7-7-7---5-5-5-5-5-5-5-5-5-5-5-5-----------------------------------|
E|---------5-5-5---3-3-3-3-3-3-3-3-3-3-3-3-----------------------------------|
PM                [-----------------------]

e|---------------------------------------------------------------------------|
B|---------------------------------------------------------------------------|
G|-7-7-7---------------------------------------------------------------------|
D|-7-7-7---7-7-7---5-5-5-5-5-5-7-7-7-7-7-7-----------------------------------|
A|-5-5-5---7-7-7---5-5-5-5-5-5-7-7-7-7-7-7-----------------------------------|
E|---------5-5-5---3-3-3-3-3-3-5-5-5-5-5-5-----------------------------------|
PM                [-----------------------] Slowly let off PM

[Chorus]

e|---------------------------------------------------------------------------|
B|---------------------------------------------------------------------------|
G|-7--7--7--7--7--7--x--x--x--x--x--x--x--x--x--x--x--x--x--x--x--x--x--x----|
D|-7--7--7--7--7--7--7--7--7--7--7--7--5--5--5--5--5--5--7--7--7--7--7--7----|
A|-5--5--5--5--5--5--7--7--7--7--7--7--5--5--5--5--5--5--7--7--7--7--7--7----|
E|-x--x--x--x--x--x--5--5--5--5--5--5--3--3--3--3--3--3--5--5--5--5--5--5----|

e|---------------------------------------------------------------------------|
B|---------------------------------------------------------------------------|
G|-7--7--7--7--7--7--9--9--9--9--9--9--x--x--x--x--x--x--x--x--x--x--x--x----|
D|-7--7--7--7--7--7--9--9--9--9--9--9--5--5--5--5--5--5--7--7--7--7--7--7----| (Play whole chorus twice)
A|-5--5--5--5--5--5--7--7--7--7--7--7--5--5--5--5--5--5--7--7--7--7--7--7----|
E|-x--x--x--x--x--x--x--x--x--x--x--x--3--3--3--3--3--3--5--5--5--5--5--5----|

[Post-Chorus]

e|---------------------------------------------------------------------------|
B|---------------------------------------------------------------------------|
G|-7-7-7-7-7-7-7-7-----------------------------------------------------------|
D|-7-7-7-7-7-7-7-7-7-7-7-7-7-7-7-7-5-5-5-5-5-5-5-5--7-7-7-7-7----------------|
A|-5-5-5-5-5-5-5-5-7-7-7-7-7-7-7-7-5-5-5-5-5-5-5-5--7-7-7-7-7----------------|
E|-----------------5-5-5-5-5-5-5-5-3-3-3-3-3-3-3-3--5-5-5-5-5----------------|

[Verse 2]

e|---------------------------------------------------------------------------|
B|---------------------------------------------------------------------------|
G|-7-7-7-7-7-7-7-7-----------------------------------------------------------|
D|-7-7-7-7-7-7-7-7-7-7-7-7-7-7-7-7-5-5-5-5-5-5-5-5-7-7-7-7-7-7-7-7-----------| (x2)
A|-5-5-5-5-5-5-5-5-7-7-7-7-7-7-7-7-5-5-5-5-5-5-5-5-7-7-7-7-7-7-7-7-----------|
E|-----------------5-5-5-5-5-5-5-5-3-3-3-3-3-3-3-3-5-5-5-5-5-5-5-5-----------|
PM[---------------------------------------------------------------]

[Pre-Chorus]

e|---------------------------------------------------------------------------|
B|---------------------------------------------------------------------------|
G|-7-7-7---------------------------------------------------------------------|
D|-7-7-7---7-7-7---5-5-5-5-5-5-5-5-5-5-5-5-----------------------------------|
A|-5-5-5---7-7-7---5-5-5-5-5-5-5-5-5-5-5-5-----------------------------------|
E|---------5-5-5---3-3-3-3-3-3-3-3-3-3-3-3-----------------------------------|
PM                [-----------------------]

e|---------------------------------------------------------------------------|
B|---------------------------------------------------------------------------|
G|-7-7-7---------------------------------------------------------------------|
D|-7-7-7---7-7-7---5-5-5-5-5-5-7-7-7-7-7-7-----------------------------------|
A|-5-5-5---7-7-7---5-5-5-5-5-5-7-7-7-7-7-7-----------------------------------|
E|---------5-5-5---3-3-3-3-3-3-5-5-5-5-5-5-----------------------------------|
PM                [-----------------------] Slowly let off PM

[Chorus]

e|---------------------------------------------------------------------------|
B|---------------------------------------------------------------------------|
G|-7--7--7--7--7--7--x--x--x--x--x--x--x--x--x--x--x--x--x--x--x--x--x--x----|
D|-7--7--7--7--7--7--7--7--7--7--7--7--5--5--5--5--5--5--7--7--7--7--7--7----|
A|-5--5--5--5--5--5--7--7--7--7--7--7--5--5--5--5--5--5--7--7--7--7--7--7----|
E|-x--x--x--x--x--x--5--5--5--5--5--5--3--3--3--3--3--3--5--5--5--5--5--5----|

e|---------------------------------------------------------------------------|
B|---------------------------------------------------------------------------|
G|-7--7--7--7--7--7--9--9--9--9--9--9--x--x--x--x--x--x--x--x--x--x--x--x----|
D|-7--7--7--7--7--7--9--9--9--9--9--9--5--5--5--5--5--5--7--7--7--7--7--7----| (Play whole chorus twice)
A|-5--5--5--5--5--5--7--7--7--7--7--7--5--5--5--5--5--5--7--7--7--7--7--7----|
E|-x--x--x--x--x--x--x--x--x--x--x--x--3--3--3--3--3--3--5--5--5--5--5--5----|

[Post-Chorus]

e|---------------------------------------------------------------------------|
B|---------------------------------------------------------------------------|
G|-7-7-7-7-7-7-7-7-----------------------------------------------------------|
D|-7-7-7-7-7-7-7-7-7-7-7-7-7-7-7-7-5-5-5-5-5-5-5-5--7-7-7-7-7----------------|
A|-5-5-5-5-5-5-5-5-7-7-7-7-7-7-7-7-5-5-5-5-5-5-5-5--7-7-7-7-7----------------|
E|-----------------5-5-5-5-5-5-5-5-3-3-3-3-3-3-3-3--5-5-5-5-5----------------|

[Bridge]

e|---------------------------------------------------------------------------|
B|---------------------------------------------------------------------------|
G|-7-7-7-7-7-7-7-7-----------------------------------------------------------|
D|-7-7-7-7-7-7-7-7-7-7-7-7-7-7-7-7-5-5-5-5-5-5-5-5--7-7-7-7-7----------------|
A|-5-5-5-5-5-5-5-5-7-7-7-7-7-7-7-7-5-5-5-5-5-5-5-5--7-7-7-7-7----------------|
E|-----------------5-5-5-5-5-5-5-5-3-3-3-3-3-3-3-3--5-5-5-5-5----------------|

e|---------------------------------------------------------------------------|
B|---------------------------------------------------------------------------|
G|-7-7-7---------------------------------------------------------------------|
D|-7-7-7---7-7-7---5-5-5-5-5-5-5-5-5-5-5-5-----------------------------------|
A|-5-5-5---7-7-7---5-5-5-5-5-5-5-5-5-5-5-5-----------------------------------|
E|---------5-5-5---3-3-3-3-3-3-3-3-3-3-3-3-----------------------------------|
PM                [-----------------------]

e|---------------------------------------------------------------------------|
B|---------------------------------------------------------------------------|
G|-7-7-7---------------------------------------------------------------------|
D|-7-7-7---7-7-7---5-5-5-5-5-5-7-7-7-7-7-7-----------------------------------|
A|-5-5-5---7-7-7---5-5-5-5-5-5-7-7-7-7-7-7-----------------------------------|
E|---------5-5-5---3-3-3-3-3-3-5-5-5-5-5-5-----------------------------------|
PM                [-----------------------]

e|---------------------------------------------------------------------------|
B|---------------------------------------------------------------------------|
G|-7--7--7--7--7--7----------------------------------------------------------|
D|-7--7--7--7--7--7--7--7--7--7--7--7--5--5--5--5--5--5--7--7\---------------|
A|-5--5--5--5--5--5--7--7--7--7--7--7--5--5--5--5--5--5--7--7\---------------|
E|-------------------5--5--5--5--5--5--3--3--3--3--3--3--5--5\---------------|
PM[----------------------------------------------------------]

[Chorus]

e|---------------------------------------------------------------------------|
B|---------------------------------------------------------------------------|
G|-7--7--7--7--7--7--x--x--x--x--x--x--x--x--x--x--x--x--x--x--x--x--x--x----|
D|-7--7--7--7--7--7--7--7--7--7--7--7--5--5--5--5--5--5--7--7--7--7--7--7----|
A|-5--5--5--5--5--5--7--7--7--7--7--7--5--5--5--5--5--5--7--7--7--7--7--7----|
E|-x--x--x--x--x--x--5--5--5--5--5--5--3--3--3--3--3--3--5--5--5--5--5--5----|

e|---------------------------------------------------------------------------|
B|---------------------------------------------------------------------------|
G|-7--7--7--7--7--7--9--9--9--9--9--9--x--x--x--x--x--x--x--x--x--x--x--x----|
D|-7--7--7--7--7--7--9--9--9--9--9--9--5--5--5--5--5--5--7--7--7--7--7--7----|
A|-5--5--5--5--5--5--7--7--7--7--7--7--5--5--5--5--5--5--7--7--7--7--7--7----|
E|-x--x--x--x--x--x--x--x--x--x--x--x--3--3--3--3--3--3--5--5--5--5--5--5----|

e|---------------------------------------------------------------------------|
B|---------------------------------------------------------------------------|
G|-7--7--7--7--7--7--9--9--9--9--9--9--x--x--x--x--x--x--x--x--x--x--x--x----|
D|-7--7--7--7--7--7--9--9--9--9--9--9--5--5--5--5--5--5--7--7--7--7--7--7----|
A|-5--5--5--5--5--5--7--7--7--7--7--7--5--5--5--5--5--5--7--7--7--7--7--7----|
E|-x--x--x--x--x--x--x--x--x--x--x--x--3--3--3--3--3--3--5--5--5--5--5--5----|

[Outro]

e|---------------------------------------------------------------------------|
B|---------------------------------------------------------------------------|
G|--7--7--7--7--------------7\-----------------------------------------------|
D|--7--7--7--7--5--5--7--7--7\-----------------------------------------------|
A|--5--5--5--5--5--5--7--7--5\-----------------------------------------------|
E|--------------3--3--5--5---------------------------------------------------|

************************************

| x   Dead note
| \   Slide down
| PM  Palm mute
 
************************************
Suggest correction
Creating personal tab
Creating personal tab
You can edit any tab online and save it as your Personal.

You can edit, replace or remove any tab part or add personal notes – all changes will be seen only by you.

Personal tabs can be accessed anytime from any device, even offline.
Learn more »
Give kudos to tab author, rate the tab!
1 2 3 4 5
comments
print report bad tab
guest
You may want to rate the tab now too:
select rating
Wanna post a correction for this tab? Suggest correction