Oops, an error
Loading. Please wait.

Chore Again Tab

version 2
version 2

Whole song

by Fony
79 views 1 this week
no commentswrite comment
1 2 3 4 5
3 more votes to show rating
add to favorites
×
Save as Personal and add changes to this tab that will be seen only by you. Learn more ›
×
You can save this tab as Personal to edit and correct it or add notes. All changes will be seen only by you. Learn more »
save as personal
new!
launch autoscroll
font size
0
reset
how to read this tab
guitar tuner
Autoscroll
slow
fast
+/-
esc
set tempo
stop
Song Title:   Chore Again
Artist: Fony

Intro 

guitar 1 

d|-------------------------------------------------------------------|
a|-------------------------------------------------------------------|
f|---------9999--10101010-12121212-----------------------------------|
c|---0000--7777--8-8-8-8--8-8-8-8------------------------------------|
g|---0000--7777--8-8-8-8--8-8-8-8------------------------------------|
c|---0000--0000--0-0-0-0--0-0-0-0------------------------------------|  x4

guitar 2 

d|-------------------------------------------------------------------|
a|-------------------------------------------------------------------|
f|-------------------------------------------------------------------|
c|--0~~~~~~----------------------------------------------------------|
g|--0~~~~~~----------------------------------------------------------|
c|--0~~~~~~----------------------------------------------------------| x2 
    Volume Swell
Chorus

Both Guitars

d|---------------------------------------------|          |---------------------------------------------|
a|---------------------------------------------|          |---------------------------------------------|
f|---------9999--10101010-12121212-------------|          |---------9999--10101010----------------------|
c|---0000--7777--8-8-8-8--10101010-------------| On Last |---0000--7777--8-8-8-8--3333--0~~~~~---------|
g|---0000--7777--8-8-8-8--10101010-------------|          |---0000--7777--8-8-8-8--3333--0~~~~~---------|
c|---0000--0000--0-0-0-0--0-0-0-0--------------|x4       |---0000--0000--0-0-0-0--3333--0~~~~~---------|
                                                                                  p.m.  let ring
Verse                                                                             

Guitar 1

d|-------------------------------------------------------------------|    
a|-------------------------------------------------------------------|    
f|---------9-----------------12--------------------------------------|     
c|-------7---7-------------8----8------------------------------------|     
g|-----7-------7---------8--------8----------------------------------|     
c|---0-----------------0---------------------------------------------| x8


Guitar 2

d|-------------------------------------------------------------------|     
a|-------------------------------------------------------------------|     
f|-------------------------------------------------------------------|     
c|----0000--7777-8888-9999-------------------------------------------|     
g|----0000--7777-8888-9999-------------------------------------------|     
c|----0000--7777-8888-9999-------------------------------------------| x4
 p.m  ____  ____ ____ ____ 


2nd Chorus

Both Guitars

d|---------------------------------------------|           |-------------------------------------------------|
a|---------------------------------------------|           |-------------------------------------------------|
f|---------9999--10101010-12121212-------------|           |---------9999--10101010--------------------------|
c|---0000--7777--8-8-8-8--10101010-------------| On Last  |---0000--7777--8-8-8-8--101010101010101010101010-|
g|---0000--7777--8-8-8-8--10101010-------------|           |---0000--7777--8-8-8-8--101010101010101010101010-|
c|---0000--0000--0-0-0-0--0-0-0-0--------------|x4        |---0000--0000--0-0-0-0--101010101010101010101010-|
                                                                                  

Interlude - this can be done on 1 guitar if done fast enough
Is written here in right timing... i think :)
   
Guitar 1
   
d|-------------------------------------------------------------------|     
a|-------------------------------------------------------------------|     
f|-------------------------------------------------------------------|     
c|---0000-----------8888---------------------------------------------|     
g|---0000-----------8888---------------------------------------------|     
c|---0000-----------8888---------------------------------------------| x8

Guitar 2

d|-------------------------------------------------------------------|     
a|-------------------------------------------------------------------|     
f|----------9999-----------12121212----------------------------------|     
c|----------7777-----------8-8-8-8-----------------------------------|     
g|----------7777-----------8-8-8-8-----------------------------------|     
c|----------0000-----------0-0-0-0-----------------------------------| x8


Outro 

Both Guitars

d|-------------------------------------------------------------------|     
a|-------------------------------------------------------------------|     
f|-------------------------------------------------------------------|     
c|---1212121212121212--7777-3333---10101010101010--6666--5555--------|     
g|---1212121212121212--7777-3333---10101010101010--6666--5555--------|     
c|---1212121212121212--7777-3333---10101010101010--6666--5555--------| x10 

that should be it, if Ashley W sees this, lol, u know who this is
Suggest correction
Give kudos to tab author, rate the tab!
1 2 3 4 5
comments
print report bad tab
guest
Wanna post a correction for this tab? Suggest correction