Oops, an error
Loading. Please wait.

A320 Tab

version 1
version 1

Acoustic

Whole song

Interactive

2,730 views 3 this week
no commentswrite comment
1 2 3 4 5
2 more votes to show rating
add to favorites
launch autoscroll
font size
0
reset
how to read this tab
guitar tuner
Autoscroll
slow
fast
+/-
esc
set tempo
stop
Help us to improve Ultimate-Guitar.com Take our survey!
×
Author
Foo Fighters - A320 (acoustic)
(Normal Tuning)




Note: This tab is written for the sole purpose of sing and playing by oneself.
As the song is structured awkwardly, it is hard to perform this as a solo effort.
Therefore, some of the parts I have added do not appear in the song. Call it a
variation if you will, those who have seen my Aurora acoustic tab, will get the idea.


Intro
e|-----------------------------|
b|-----------------------------| (Repeat several times)
g|-----------------------------|
d|-----------------------------|
a|----5---5---4---4b5p4-2-0----|
e|--3---3---3---3-----------2--|


Verse

"There's a place I'd love to go"
"Strangers takin' me there"

e|--3-3-3-3-3-3-3-3-3-3-3-3-3-3-3-3-3-3-3-3-3-3--|
b|--3-3-3-3-3-3-3-3-3-3-3-3-3-3-3-3-3-3-3-3-3-3--|
g|--0-0-0-0-0-0-0-0-0-0-0-0-0-0-0-0-0-0-0-0-0-0--|
d|--0-0-0-0-0-0-0-0-0-0-0-0-0-0-0-0-0-0-0-0-0-0--|
a|--2-2-2-2-2-x-x-x-x-x-2-2-2-2-2-2-0-0-0-0-0-0--|
e|--3-3-3-3-3-2-2-2-2-2-3-3-3-3-3-3-2-2-2-2-2-2--|

"I dream about the day I learned to fly"

e|------------0--------3-3-3-3-3-3-3-3-3-3-3--|
b|--------------3------4-4-4-4-4-4-6-6-6-6-6--|
g|----------------0----5-5-5-5-5-5-5-5-5-5-5--|
d|--------2---------2--5-5-5-5-5-5-5-5-5-5-5--|
a|----2----------------3-3-3-3-3-3-3-3-3-3-3--|
e|--0---0---0---------------------------------|


Bridge - (* = either strum, or let ring)
e|--3-3-3-3-3-3-3-3-3-3-3-3-3-3-3-3-3-3-3-3-3-3--|
b|--3-3-3-3-3-3-3-3-3-3-3-3-3-3-3-3-3-3-3-3-3-3--|
g|--0-0-0-0-0-0-0-0-0-0-0-0-0-0-0-0-0-0-0-0-0-0--|
d|--0-0-0-0-0-0-0-0-0-0-0-0-0-0-0-0-0-0-0-0-0-0--|
a|--2-2-2-2-2-x-x-x-x-x-2-2-2-2-2-2-0-0-0-0-0-0--|
e|--3-3-3-3-3-2-2-2-2-2-3-3-3-3-3-3-2-2-2-2-2-2--|

"Close my eyes and hope that it's a"

e|-----------------------------|
b|-----------------------------|
g|--2*-------------------------|
d|--2*-------------------------|
a|--0*-------------------------|
e|-----------------------------|

"real smooth flight"

e|--0--------------------------|
b|--0--------------------------|
g|--0--------------------------|
d|--3--------------------------|
a|--3--------------------------|
e|--1--------------------------|

"This time"

e|--3-3-3-3-3-3-3-3-3-3-3-3-3-3-3-3-3-3-3-3-3-3--|
b|--3-3-3-3-3-3-3-3-3-3-3-3-3-3-3-3-3-3-3-3-3-3--|
g|--0-0-0-0-0-0-0-0-0-0-0-0-0-0-0-0-0-0-0-0-0-0--|
d|--0-0-0-0-0-0-0-0-0-0-0-0-0-0-0-0-0-0-0-0-0-0--|
a|--2-2-2-2-2-x-x-x-x-x-2-2-2-2-2-2-0-0-0-0-0-0--|
e|--3-3-3-3-3-2-2-2-2-2-3-3-3-3-3-3-2-2-2-2-2-2--|

"Close my eyes and hope that it's a"

e|-----------------------------|
b|-----------------------------|
g|--2*-------------------------|
d|--2*-------------------------|
a|--0*-------------------------|
e|-----------------------------|

"real smooth flight"

e|--0--------------------------|
b|--0--------------------------|
g|--0--------------------------|
d|--3--------------------------|
a|--3--------------------------|
e|--1--------------------------|

Repeat point

"And"

e|--3-3-3-3-3-3-3-3-3-3-3-3-3-3-3-3-3-3-3-3-3-3--|
b|--3-3-3-3-3-3-3-3-3-3-3-3-3-3-3-3-3-3-3-3-3-3--|
g|--0-0-0-0-0-0-0-0-0-0-0-0-0-0-0-0-0-0-0-0-0-0--|
d|--0-0-0-0-0-0-0-0-0-0-0-0-0-0-0-0-0-0-0-0-0-0--|
a|--2-2-2-2-2-x-x-x-x-x-2-2-2-2-2-2-0-0-0-0-0-0--|
e|--3-3-3-3-3-2-2-2-2-2-3-3-3-3-3-3-2-2-2-2-2-2--|

"it's good, this time"

e|--3-3-3-3-3-3-3-3-3-3-3-3-3-3-3-3-3------------3--|
b|--3-3-3-3-3-3-3-3-3-3-3-3-3-3-3-3-3------------3--|
g|--0-0-0-0-0-0-0-0-0-0-0-0-0-0-2-2-2------------0--|
d|--0-0-0-0-0-0-0-0-0-0-2-2-0-0-2-2-2-0-0--------0--|
a|--2-2-2-2-2-0-0-0-0-0-3-3-2-2-0-0-0-2p0--2-(2)-2--|
e|--3-3-3-3-3-2-2-2-2-2--------------------3p0---3--|

Repeat for "I looked down and on the ground"

Suggest correction
Give kudos to tab author, rate the tab!
1 2 3 4 5
comments
print report bad tab
guest
You may want to rate the tab now too:
select rating
Wanna post a correction for this tab? Suggest correction