Oops, an error
Loading. Please wait.

A320 Tab

version 2
version 2

Whole song

Interactive

1,053 views 3 this week
no commentswrite comment
1 2 3 4 5
2 more votes to show rating
add to favorites
launch autoscroll
font size
0
reset
how to read this tab
guitar tuner
Autoscroll
slow
fast
+/-
esc
set tempo
stop
Help us to improve Ultimate-Guitar.com Take our survey!
×
A320
Foo Fighters

Tabbed by Misslinger Stefan
missi@tirol.com


Intro:
e------------------------------------
h------------------------------------
g------------------------------------
D------------------------------------
A---7----7----6----6h7p6-------------
E-5----5----5----5-------7-5-4-5-----	3 mal	(beim 2ten Mal setzt der Bass mit ein)

e---------------------------
h---------------------------
g---------------------------
D---------------------------
A---7----7----6-------------
E-5----5----5--------------- 

FILL1
e-----4------5------4------5-----
h--5------5------5------5--------
g--------------------------------
D--------------------------------
A--------------------------------
E--------------------------------

FILL2
e---------------------
h--4/5--5/7--7/9--9---
g---------------------
D---------------------
A---------------------
E---------------------A		   A/G#
There's a place I love to go
A		A/G#
Strangers take me there
f#				   d
Dreamed about the day I learned to fly

A		   A/G#
I'm afraid of airoplanes
A		A/G#
Even though I like the way
f#				   d
it feels to be a person in the sky


>mit FILL1
	A
It's alright
	A
And it's good
	D
This time


A		   A/G#
I look down and on the ground
A		A/G#
Really don't believe it
f#				   d
Gravity can pull me from this height

A		   A/G#
One day we'll come crashing down
A		A/G#
What will I do
f#				   d
Never had a chance to say goodbye


>mit FILL2
  B					G
I close my eyes and hope that it's a real smooth flight
N.C.
This time	2xIntro

I close my eyes and hope that it's a real smooth flight

>mit FILL1
	 A
And it's good
	D
This time

A
I look down and on the ground
A
I look down and on the ground
A
I look down and on the ground
A
AH LOOK OUT WE'RE GOING DOWN


>mit Distortion

e----------------------------------------------------
h----------------------------------------------------
g-----------------9-9---12-12------------------------
D--7-7---11-11----9-9---12-12------5-5-5-5-5-5-5-----
A--7-7---11-11----7-7---10-10------5-5-5-5-5-5-5-----
E--5-5---9--9----------------------3-3-3-3-3-3-3-----	6 mal

e-------------------------------
h-------------------------------
g-----------------9-9---14-14---
D--7-7---11-11----9-9---14-14---
A--7-7---11-11----7-7---12-12---
E--5-5---9--9-------------------["Solo"] (wenn mans so nennen darf)

   A             A/G#           C                A#
e-----------------------------------------------------------------
h-----------------------------------------------------------------
g--6-6--7--9-9---4-4--6--4------9-9--10--12-12---7-7-7--9--10-----
D-----------------------------------------------------------------
A-----------------------------------------------------------------
E-----------------------------------------------------------------  einige Male wiederholen und -aus-Bei irgendwelchen Anregungen, Wünschen oder Fragen
missi@tirol.com
Suggest correction
Give kudos to tab author, rate the tab!
1 2 3 4 5
comments
print report bad tab
guest
You may want to rate the tab now too:
select rating
Wanna post a correction for this tab? Suggest correction