Oops, an error
Loading. Please wait.

A Matter Of Time Bass Tab

version 1
version 1

Whole song

Interactive

7,820 views 9 this week
no commentswrite comment
1 2 3 4 5
excellent!
x 7
add to favorites
launch autoscroll
font size
0
reset
guitar tuner
Tab Pro tools
  • play this tab
  • loop segment
  • change instrument
  • show fretboard
  • metronome
×
Best way to learn
"A Matter Of Time"
Autoscroll
slow
fast
+/-
esc
set tempo
stop
Difficulty
novice
-------------------------------------------------------------------------------
			     A Matter Of Time - Foo Fighters
-------------------------------------------------------------------------------

Tabbed By : JP Nazzle

Probably not 100% accurate but should allow you to play along OK! You'll have to 
figure what order it goes in but it's all there... Enjoy!

Tuning: EADG

Intro
G|---------------------------------------------------------------------------|
D|---------------------------------------------------------------------------|
A|--7--7-77---------7--7-77--------7--7-77--------7--7-77--------------------|
E|-0-00-----0-2320-0-00----0-2320-0-00----0-2320-0-00----0-------------------|

Verse
G|---------------------------------------------------------------------------|
D|---------------------------------------------------------------------------|
A|---------------------------------------------------------------------------|
E|---2320--------------------------------------------------------------------|

G|---------------------------------------------------------------------------|
D|---------------------------------------------------------------------------|
A|---12-12--------12-12--12/14-12--------------------------------------------|
E|---------------------------------------------------------------------------|

G|---------------------------------------------------------------------------|
D|---------------------------------------------------------------------------|
A|---7-(x16)-6-(x16)-5-(x16)-4-(x12)------3-(x16)---------/12-(x15)/14-12----|
E|-----------------------------------2320---------0-(x16)--------------------|

G|---------------------------------------------------------------------------|
D|---------------------------------------------------------------------------|
A|---12-(x16)----------------------------------------------------------------|
E|-------------00-0-0-00-0---------------------------------------------------|

Chorus
G|---------------------------------------------------------------------------|
D|----------------------------6-7-9------6-7-9-------------------------------|
A|--------5-7--------5-7--7-9--------7-9--------------5-7--------5-7---------|
E|--5-7-8------5-7-8----------------------------5-7-8------5-7-8-------------|

G|---------------------------------------------------------------------------|
D|------6-7------------------------------------------------------------------|
A|--7-9-----2-4--5-(x16)-4-(x16)-3-(x16)--------2-4--5-(x16)-4-(x16)-3-(x16)-|
E|---------------------------------------0-(x12)-----------------------------|

G|---------------------------------------------------------------------------|
D|---------------------------------------------------------------------------|
A|---7--7-77-----------------------------------------------------------------|
E|--0-00----0-2320-----------------------------------------------------------|

Bridge
G|---------------------------------------------------------------------------|
D|---------------------------------------6-7--------------6-7----------------|
A|--------5----------------5---------7-9--------------7-9--------------------|
E|--5-7-8---7b8b7-5--5-7-8--7b8b7-5----------2b3b2p0----------2b3b2p0--------|


| /  slide up
| \  slide down
| h  hammer-on
| p  pull-off
| b  bend
| ~  vibrato
| +  harmonic
| x  Mute note
===============================================================================
comments
print report bad tab
I want to post or [tab]
guest
You may want to rate the tab now too:
select rating
Please do not post tabs as comments. Select "correction" instead!