Oops, an error
Loading. Please wait.

All My Life Bass Tab

version 3
version 3
11,152 views 57 this week
1 commentread comment
1 2 3 4 5
excellent!
x 7
add to favorites
launch autoscroll
font size
0
reset
guitar tuner
Tab Pro tools
  • play this tab
  • loop segment
  • change instrument
  • show fretboard
  • metronome
×
Best way to learn
"All My Life"
Autoscroll
slow
fast
+/-
esc
set tempo
stop
Contributor
Difficulty
intermediate
Speed --> 168 beats per minute


Play nothing for 24 Bars

G ---------------|---------------|--------------|---------------|
D ---------------|---------------|--------------|---------------|
A ---------------|---------------|--------------|---------------|
E 3-3-3-0-3-3--0-|3-3-0-3--5-5-5-|-3-3-0-3-3--0-|3-3-0-3--6-6-6-|


G ---------------|---------------|--------------|---------------|
D ---------------|---------------|--------------|---------------|
A ---------------|---------------|--------------|---------------|<--|
E --3-3-0-3-3--0-|3-3-0-3--5-5-5-|-3-3-0-3-3--0-|3-3-0-3--6-6-6-|   |
                                                Repeat x3           |
                                                                    |
                                                                    |
G ---------------|---------------|--------------|--------------|    |
A ---------------|---------------|--------------|--------------|    |
D ---------------|---------------|--------------|--------------|    |
E --3-3-0-3-3--0-|3-3-0-3--5-5-5-|-3-3-0-3-3--0-|3-3-0-3--0-3--|    |
                                                                    |
G ---------------|---------------|--------------|---------------|   |
A ---------------|---------------|--------------|---------------|   |
D ---------------|---------------|--------------|---------------|   |
E ---------------|------------15\|\3--3--3-3-3--|3-3-3--3-3-3-0-|   |
                                                                    |
G --------------|---------------|--------------|------------|       |
A --------------|---------------|--------------|------------|       |
D --------------|---------------|--------------|------------|       |
E 3--3--3-3-3-3-|3-3-3--3-3-3-0-|0--0--0-0-0-0-|1--1--1-1-1/|       |
                                                                    |
G -------------|--------------|---------------|--------------|      |
A -------------|--------------|---------------|--------------|      |
D ---------6---|--------------|---------------|--------------|      |
G /6--6--6---6-|3--3--3-3-3-3-|3-3-3--3-3-3-0-|3--3--3-3-3-3-|      |
                                                                    |
G ---------------|-------------|------------|-------------|         |
A ---------------|-------------|------------|-------------|         |
D ---------------|-------------|------------|---------6---|         |
E 3-3-3--3-3-3-0-|0--0--0--0-0-|1--1--1-1-1/|/6--6--6---6-|         |
                                                                    |
G ---------------|---------------|---------------|---------------| Go back 
A ---------------|---------------|---------------|---------------| here and
D ---------------|---------------|---------------|---------------| play
E --3-3-0-3-3--0-|3-3-0-3--5-5-5-|--3-3-0-3-3--0-|3-3-0-3--6-6-6-| through
                                                                   once more

Play Nothing For 16 bars

G --------------|
A --------------|   Repeat x30
D --------------|
E 3-3--3-3-3--3-|

G ---------------------|--------------|---------------|
A ---------------------|--------------|---------------|
D ---------------------|--------------|---------------|
E 3-3-3/15-15-15-15-15-|3-3--3-3-3--3-|3-3--3-3-3/15--|

G ----------------------|--------------------|
A ----------------------|--------------------|
D 13--------------------|15------------------|
E ---15-13-15-15-15--15-|---15-13-15-13-13---|

G --------------|---------------|--------------------|----------------|
A --------------|---------------|--------------------|----------------|
D --------------|---------------|13-----13-----13/15-|13--------------|
E 3-3--3-3-3--3-|3-3--3-3-3/15--|---15-----15--------|----15--15--15--|

G -------------|---------------|--------------|---------------|
A -------------|---------------|--------------|---------------|
D -------------|---------------|--------------|---------------|
E 3--3--3-3-3--|3-3-3--3-3-3-0-|3--3--3-3-3-3-|3-3-3--3-3-3-0-|

G --------------|------------|--------------|--------------------|
A --------------|------------|--------------|--------------------|
D --------------|------------|--------------|10--10--10-10-10-10-|
E 0--0--0-0-0-0-|1--1--1-1-1/|/6--6--6-6-6--|--------------------|

G ------------------------|-------------------------|
A ------------------------|-------------------------|
D 10-10-10-10-10-10-10-10-|-10-10-10-10-10-10-10-10-|
E ------------------------|-------------------------|

G ------------------|--------------|------------|--------------|
A ------------------|--------------|------------|--------------|
D 10-10-8-8-6-6-5-0-|--------------|------------|---------8----|
E ------------------|0--0--0-0-0-0-|1--1--1-1-1/|/6--6--6---6--|

G --------------|
A --------------|   Repeat x2
D --------------|
E 3-3--3-3-3--3-|

G -------------|--------------|--------------|--------------|
A -------------|--------------|--------------|--------------|
D -------------|--------------|--------------|--------------|
E 3-3--3-3--3--|--3-3--3-3--3-|3-3--3-3-3--3-|3-3--3-3-3--3-|

G --------------|---------------|
A --------------|---------------|
D --------------|---------------|
E 3-3--3-3-3-3--|--3-3----------|
comments
print report bad tab
1 comment total.
0 reply
Brainback wrote on July 1 2014, 04:51 pm

Good job. I found some mistakes, but still really accurate and the best tab in here. :)

I want to post or [tab]
guest
You may want to rate the tab now too:
select rating
Please do not post tabs as comments. Select "correction" instead!