Oops, an error
Loading. Please wait.

All My Life Tab

version 3
version 3
5,527 views 3 this week
1 commentread comment
1 2 3 4 5
x 8
add to favorites
launch autoscroll
font size
0
reset
how to read this tab
guitar tuner
Autoscroll
slow
fast
+/-
esc
set tempo
stop
Help us to improve Ultimate-Guitar.com Take our survey!
×
Author
This is my version of this song, is sounds OK with one guitar,
yeah, we can play it alone( we can sing (shout) jeje)

Rubio (jose_rn@hotmail.com)

Foo fighters - all my life


Intro and verse:

|---------------|     |-------------7--|
|---------------|     |------------10--|
|---------------|     |----------------|
|---------------|x19  |----------------|(end of the verse 1)
|-5-5--5-5-5--5-|     |-5-5--5-5-5-----|
|-3-3--3-3-3--3-|     |-3-3--3-3-3-----|

All my life I've been searching for something
Something never comes never leads to nothing
Nothing satisfies but I'm getting close
Closer to the prize at the end of the rope
All night long I dream of the day
When it comes around then it's taken away
Leaves me with the feeling that I feel the most
The feeling comes to life when I see your ghost 

Riff1

|-------------------|----------------|---------------|-----------------|
|-------------------|----------------|---------------|-----------------|
|-------------------|----------2-2-2-|---------------|----------3-3-3--|
|------5-5---5-5--5-|-5-5---5--2-2-2-|--5-5---5-5--5-|-5-5---5--3-3-3--|x2
|------5-5---5-5--5-|-5-5---5--0-0-0-|--5-5---5-5--5-|-5-5---5---------|
|------3-3-0-3-3--3-|-3-3-0-3--------|--3-3-0-3-3--3-|-3-3-0-3--6-6-6--|

Verse 2: 

|-----------------|------------------|-----------------|------------------|
|-----------------|------------------|-----------------|------------------|
|---3--------3----|-3-------3--2-2-2-|---3--------3----|-3-------3--3-3-3-|
|-----------------|------------2-2-2-|-----------------|------------3-3-3-|x3
|-----------------|------------0-0-0-|-----------------|------------------|
|-3----3-3-3----3-|---3-3-3----------|-3----3-3-3----3-|---3-3-3----6-6-6-|

|-----------------|------------------|-----------------|------------------|
|-----------------|------------------|-----------------|------------------|
|---3--------3----|-3-------3--2-2-2-|---3--------3----|-3-------3------3-|
|-----------------|------------2-2-2-|-----------------|------------------|
|-----------------|------------0-0-0-|-----------------|------------------|
|-3----3-3-3----3-|---3-3-3----------|-3----3-3-3----3-|---3-3-3----3-3---|

Come down don't you resist
You have such a delicate wrist
And if I give it a twist
Something to hold when I lose my breath
Will I find something in that
So give me just what I need
Another reason to bleed
ONE BY ONE hidden up my sleeve

|---------------|--------------|-----------|-----------|
|---------------|--------------|-4------4--|-4------4--|
|---------------|--------------|-0------0--|-0------0--|
|---------------|--------------|-5------5--|-5------5--|
|-5-5--5-5-5--5-|-5-5--5-5-5---|-6------6--|-6------6--|
|-3-3--3-3-3--3-|-3-3--3-3-3---|-----------|-----------|

ONE BY ONE hidden up my sleeve..HEY,don't let it go to waste

|-----------|-----------|-0------0--|-1------1--|
|-3------3--|-3------3--|-1------1--|-1------1--|
|-0------0--|-0------0--|-0------0--|-2------2--|
|-5------5--|-5------5--|-2------2--|-3------3--|
|-5------5--|-5------5--|-3------3--|-3------3--|
|-----------|-----------|-0------0--|-1------1--|

I love it but I hate the taste Weight keeping me  (x2)

|-6--------|-----------|-----------|-----------|
|-6--------|-4------4--|-4------4--|-3------3--|
|-7--------|-0------0--|-0------0--|-0------0--|
|-8--------|-5------5--|-5------5--|-5------5--|
|-8--------|-6------6--|-6------6--|-5------5--|
|-6--------|-----------|-----------|-----------|

down     HEY,don't let it go to waste, i love it


|-----------------|-0------0--|-1------1--|-6----|
|-3------3--------|-1------1--|-1------1--|-6----|
|-0------0--------|-0------0--|-2------2--|-7----|
|-5------5--------|-2------2--|-3------3--|-8----|
|-5------5--------|-3------3--|-3------3--|-8----|
|-----------------|-0------0--|-1------1--|-6----|

but I hate the taste   Weight keeping me    dooooooo..      

|-6---------------|-------------------|---------------|----------------|
|-6---------------|-------------------|---------------|----------------|
|-7---------------|-------------2-2-2-|---------------|----------3-3-3-|
|-8--5-5---5-5--5-|-5-5---5--5--2-2-2-|--5-5---5-5--5-|-5-5---5--3-3-3-|
|-8--5-5---5-5--5-|-5-5---5--5--0-0-0-|--5-5---5-5--5-|-5-5---5--------|
|-6--3-3-0-3-3--3-|-3-3-0-3--3--------|--3-3-0-3-3--3-|-3-3-0-3--6-6-6-|

..ooooooooooooooooooooooooooooooooooooooooooooooooooooooooooooooooooo
                                                              (iujuuuuu

|---------------|----------------|---------------|----------------|
|---------------|----------------|---------------|----------------|
|---------------|----------2-2-2-|---------------|----------3-3-3-|
|--5-5---5-5--5-|-5-5---5--2-2-2-|--5-5---5-5--5-|-5-5---5--3-3-3-|
|--5-5---5-5--5-|-5-5---5--0-0-0-|--5-5---5-5--5-|-5-5---5--------|
|--3-3-0-3-3--3-|-3-3-0-3--------|--3-3-0-3-3--3-|-3-3-0-3--6-6-6-|

..ooooooooooooooooooooooooooooooooooooooooooooooooooooooooownn!!
uuuuuuuuuuuuuuuuuuuuuuuuuuuuuuuuuuuuuuuuuuuuuuuuuuuuuh)

|-----------------|------------------|-----------------|------------------|
|-----------------|------------------|-----------------|------------------|
|---3--------3----|-3-------3--2-2-2-|---3--------3----|-3-------3--3-3-3-|
|-----------------|------------2-2-2-|-----------------|------------3-3-3-|x3
|-----------------|------------0-0-0-|-----------------|------------------|
|-3----3-3-3----3-|---3-3-3----------|-3----3-3-3----3-|---3-3-3----6-6-6-|


|-----------------|------------------|-----------------|------------------|
|-----------------|------------------|-----------------|------------------|
|---3--------3----|-3-------3--2-2-2-|---3--------3----|-3-------3------3-|
|-----------------|------------2-2-2-|-----------------|------------------|
|-----------------|------------0-0-0-|-----------------|------------------|
|-3----3-3-3----3-|---3-3-3----------|-3----3-3-3----3-|---3-3-3----3-3---|

Will I find a believer
Another one who believes
Another one to deceive
Over and over down on my knees
If I get any closer
And if you open up wide
And if you let me inside
On and on I've got nothing to hide

|---------------|-------------7----|-----------|-----------|
|---------------|------------10----|-4------4--|-4------4--|
|---------------|------------------|-0------0--|-0------0--|
|---------------|------------------|-5------5--|-5------5--|
|-5-5--5-5-5--5-|-5-5--5-5-5-------|-6------6--|-6------6--|
|-3-3--3-3-3--3-|-3-3--3-3-3-------|-----------|-----------|

On and on I've got nothing to hide.. Hey don't let it go to waste

|-----------|----------------|-0------0--|-1------1--|
|-3------3--|-3------3-------|-1------1--|-1------1--|
|-0------0--|-0------0-------|-0------0--|-2------2--|
|-5------5--|-5------5-------|-2------2--|-3------3--|
|-5------5--|-5------5-------|-3------3--|-3------3--|
|-----------|----------------|-0------0--|-1------1--|

I love it but I hate the taste..  Weight keeping me 

|-6--------|-----------|-----------|-----------|
|-6--------|-4------4--|-4------4--|-3------3--|
|-7--------|-0------0--|-0------0--|-0------0--|
|-8--------|-5------5--|-5------5--|-5------5--|
|-8--------|-6------6--|-6------6--|-5------5--|
|-6--------|-----------|-----------|-----------|

down     HEY,don't let it go to waste, i love it


|-----------------|-0------0--|-1------1--|-6----|
|-3------3--------|-1------1--|-1------1--|-6----|
|-0------0--------|-0------0--|-2------2--|-7----|
|-5------5--------|-2------2--|-3------3--|-8----|
|-5------5--------|-3------3--|-3------3--|-8----|
|-----------------|-0------0--|-1------1--|-6----|

but I hate the taste   Weight keeping me    dooooooo..      

|-6---------------|-------------------|---------------|----------------|
|-6---------------|-------------------|---------------|----------------|
|-7---------------|-------------2-2-2-|---------------|----------3-3-3-|
|-8--5-5---5-5--5-|-5-5---5--5--2-2-2-|--5-5---5-5--5-|-5-5---5--3-3-3-|
|-8--5-5---5-5--5-|-5-5---5--5--0-0-0-|--5-5---5-5--5-|-5-5---5--------|
|-6--3-3-0-3-3--3-|-3-3-0-3--3--------|--3-3-0-3-3--3-|-3-3-0-3--6-6-6-|

..ooooooooooooooooooooooooooooooooooooooooooooooooooooooooooooooooooo
                                                              (iujuuuuu

|---------------|----------------|---------------|----------------|
|---------------|----------------|---------------|----------------|
|---------------|----------2-2-2-|---------------|----------3-3-3-|
|--5-5---5-5--5-|-5-5---5--2-2-2-|--5-5---5-5--5-|-5-5---5--3-3-3-|
|--5-5---5-5--5-|-5-5---5--0-0-0-|--5-5---5-5--5-|-5-5---5--------|
|--3-3-0-3-3--3-|-3-3-0-3--------|--3-3-0-3-3--3-|-3-3-0-3--6-6-6-|

..ooooooooooooooooooooooooooooooooooooooooooooooooooooooooownn!!
uuuuuuuuuuuuuuuuuuuuuuuuuuuuuuuuuuuuuuuuuuuuuuuuuuuuuh)


|---------------|---------------|
|---------------|---------------|
|---------------|---------------|
|---------------|---------------|x6
|-5-5--5-5-5--5-|-5-5--5-5-3--5-|
|-3-3--3-3-3--3-|-3-3--3-5-3--3-|

All my life I've been searching for something
Something never comes never leads to nothing
Nothing satisfies but I'm getting close
Closer to the prize at the end of the rope


|-----------------|     |----------7----|
|-3-3-3-3-3-3-3-3-|     |-3-3-3-3-10----|
|-5-5-5-5-5-5-5-5-|     |-5-5-5-5-------|
|-0-0---0-0-0---0-|x23  |-0-0---0-------|
|-----------------|     |---------------|
|-3-3---3-3-3---3-|     |-3-3---3-------|

All night long I dream of the day
When it comes around then it's taken away
Leaves me with the feeling that I feel the most
The feeling comes to life when I see your ghost

And I'm done.....done and I'm under the next one(x8) 

|---------------|---------------|---------------|---------------|
|---------------|---------------|---------------|---------------|
|---------------|---------------|---------------|---------------|
|-5-5--5-5-5--5-|-5-5--5-5-5--5-|-5-5--5-5-5--5-|-5-5--5-5-5--5-|
|-5-5--5-5-5--5-|-5-5--5-5-5--5-|-5-5--5-5-5--5-|-5-5--5-5-5--5-|
|-3-3--3-3-3--3-|-3-3--3-3-3--3-|-3-3--3-3-3--3-|-3-3--3-3-3--3-|


|---------------|---------------|---------------|---------------|
|---------------|---------------|---------------|---------------|
|---------------|---------------|---------------|---------------|
|-5-5--5-5-5--5-|-5-5--5-5-5--5-|-5-5--5-5-5--5-|-5-5--5-5-5--5-|
|-5-5--5-5-5--5-|-5-5--5-5-5--5-|-5-5--5-5-5--5-|-5-5--5-5-5--5-|
|-3-3--3-3-3--3-|-3-3--3-3-3--3-|-3-3--3-3-3--3-|-3-3--3-3-3--3-|

                                 DONE..AND..I´M UNDER THE NEXT ONE!!  
|---------------|---------------|---------------|---------------|
|---------------|---------------|---------------|---------------|
|---------------|---------------|---------------|---------------|
|-5-5--5-5-5--5-|-5-5--5-5-5--5-|-5-5--5-5-5--5-|-5-5--5-5-5--5-|
|-5-5--5-5-5--5-|-5-5--5-5-5--5-|-5-5--5-5-5--5-|-5-5--5-5-5--5-|
|-3-3--3-3-3--3-|-3-3--3-3-3--3-|-3-3--3-3-3--3-|-3-3--3-3-3--3-|

DONE.. I´M DONE AND I´M UNDER THE NEXT! DONE..AND..I´M UNDER THE NEXT ONE!!
|---------------|---------------|---------------|-----------------|
|---------------|---------------|---------------|-----------------|
|---------------|---------------|---------------|-----------------|
|-5-5--5-5-5--5-|-5-5--5-5-5--5-|-5-5--5-5-5--5-|-5-5-5-5-5-5-5-5-|
|-5-5--5-5-5--5-|-5-5--5-5-5--5-|-5-5--5-5-5--5-|-5-5-5-5-5-5-5-5-|
|-3-3--3-3-3--3-|-3-3--3-3-3--3-|-3-3--3-3-3--3-|-3-3-3-3-3-3-3-3-|

DONE..I´M DONE AND I´M UNDER THE NEXT!!!!!!!!!!

|-----------|-------------|-----------|-----------|
|-4------4--|-4------4----|-3------3--|-3------3--|
|-0------0--|-0------0----|-0------0--|-0------0--|
|-5------5--|-5------5----|-5------5--|-5------5--|
|-6------6--|-6------6----|-5------5--|-5------5--|
|-----------|-------------|-----------|-----------|

Hey don't let it go to waste..i love it but i hate the taste


|-0------0--|-1------1--|-6--------|-----------|
|-1------1--|-1------1--|-6--------|-4------4--|
|-0------0--|-2------2--|-7--------|-0------0--|
|-2------2--|-3------3--|-8--------|-5------5--|
|-3------3--|-3------3--|-8--------|-6------6--|
|-0------0--|-1------1--|-6--------|-----------|

wheight     keeping me    down     Hey don´t let

|-----------|-----------|-------------------|-0------0--|
|-4------4--|-3------3--|-3------3----------|-1------1--|
|-0------0--|-0------0--|-0------0----------|-0------0--|
|-5------5--|-5------5--|-5------5----------|-2------2--|
|-6------6--|-5------5--|-5------5----------|-3------3--|
|-----------|-----------|-------------------|-0------0--|

it go to waste..i love it but i hate the taste, wheight 

|-1------1--|-6--------|-(6)--------------|-------------------|
|-1------1--|-6--------|-(6)--------------|-------------------|
|-2------2--|-7--------|-(7)--------------|-------------2-2-2-|
|-3------3--|-8--------|-(8)-5-5---5-5--5-|-5-5---5-(5)-2-2-2-|
|-3------3--|-8--------|-(8)-5-5---5-5--5-|-5-5---5-(5)-0-0-0-|
|-1------1--|-6--------|-(6)-3-3-0-3-3--3-|-3-3-0-3-(3)-------|

 keeping me  doooooooooooooooooooooooooooooooooooooooooooooooown

|---------------|----------------|---------------|----------------|
|---------------|----------------|---------------|----------------|
|---------------|----------3-3-3-|---------------|----------2-2-2-|
|--5-5---5-5--5-|-5-5---5--3-3-3-|--5-5---5-5--5-|-5-5---5--2-2-2-|
|--5-5---5-5--5-|-5-5---5--------|--5-5---5-5--5-|-5-5---5--0-0-0-|
|--3-3-0-3-3--3-|-3-3-0-3--6-6-6-|--3-3-0-3-3--3-|-3-3-0-3--------|

oooooooooooown  DONE..AND..I´M UNDER THE NEXT ONE!!       DONE I´M

|---------------|----------------|-----------*|
|---------------|----------------|-----------*|
|---------------|----------3-3-3-|-----------*|
|--5-5---5-5--5-|-5-5---5--3-3-3-|--5-5------*|
|--5-5---5-5--5-|-5-5---5--------|--5-5------*|
|--3-3-0-3-3--3-|-3-3-0-3--6-6-6-|--3-3------*|

 DONE AND I´M UNDER THE NEXT!!!!          

 (uff!! thats a song, i like it so much)
Suggest correction
comments
print report bad tab
1 comment total.
0 reply
avenged7foldrox 117 Oct 17, 2005 07:02 PM












































































u suck

guest
You may want to rate the tab now too:
select rating
Wanna post a correction for this tab? Suggest correction