Oops, an error
Loading. Please wait.

All My Life Bass Tab

version 4
version 4
1,035 views 6 this week
no commentswrite comment
1 2 3 4 5
please rate
add to favorites
launch autoscroll
font size
0
reset
guitar tuner
Tab Pro tools
  • play this tab
  • loop segment
  • change instrument
  • show fretboard
  • metronome
×
Best way to learn
"All My Life"
Autoscroll
slow
fast
+/-
esc
set tempo
stop
Contributor
Difficulty
intermediate
INTRO

G|---------------------------------|---------------------------------|
D|---------------------------------|---------------------------------|
A|-------------------------x-1-1-1-|-------------------------x-4-4-4-|
E|-3-3-0-3-3-x-0-3-3-3-0-3---------|-3-3-0-3-3-x-0-3-3-3-0-3---------|x2

VERSE

G|---------------------------------|---------------------------------|
D|---------------------------------|---------------------------------|
A|-------------------------x-3-3-3-|-------------------------x-4-4-4-|
E|-3-3-0-3-3-x-0-3-3-3-0-3---------|-3-3-0-3-3-x-0-3-3-3-0-3---------|x4

PRE-CHORUS

G|------|
D|------|
A|------|
E|-15\\-|

CHORUS

G|---------------------------------|---------------------------------|
D|---------------------------------|---------------------------------|
A|---------------------------------|---------------------------------|
E|-3---3-3---3-3-3--3---3-3--3-3-1-|-3---3-3---3-3-3--3---3-3--3-3-1-|

|--------------------------------------------------|
|--------------------------------------------------|
|----------------------------------1---1-1---1-1-1-|
|-0---0-0---0-0-0--1---1-1--1-1-1------------------|x2

INTRO x1

VERSE x4

PRE-CHORUS x1

CHORUS

G|---------------------------------|---------------------------------|
D|---------------------------------|---------------------------------|
A|---------------------------------|---------------------------------|
E|-3---3-3---3-3-3--3---3-3--3-3-1-|-3---3-3---3-3-3--3---3-3--3-3-1-|

|--------------------------0-1-2-3---------------------|
|----------------------5-4---------3-------------------|
|--------------------------------------1-1---1-3-1-----|
|-0---0-0---0-0-0--1-------------------------------5\\-|

G|---------------------------------|----------------------------------|
D|---------------------------------|----------------------------------|
A|---------------------------------|--------------------3-1-----1-----|
E|-3---3-3---3-3-3--3---3-3--3-3-1-|-3---3-3---3-3-1--3-----3-1---3-1-|

|-----------------------------------------------|
|-----------------------------------------------|
|------------------8\\5-3-1-3-5-8\\-1-1---1-3-1-|
|-0---0-0---0-0-0-------------------------------|


INTRO x1

BRIDGE

G|---------------------------------|
D|---------------------------------|
A|---------------------------------|
E|-3-3-x-3-3-3-x-3-3-3-x-3-3-3-x-3-|x12

G|------------------------------------------------------------------|
D|------------------------------------------------------------------|
A|------------------------------------------------------------------|
E|-3-3-r-0-3-3-r-0-3-3-r-0-3-3-r-0-3-3-r-0-3-3-r-0-3-3-r-0-3-3/15\\-|

|-----------------------------------------------------------------|
|-----------------------------------------------------------------|
|-----------------------------------------------------------------|
|-3-3-r-0-3-3-r-0-3-3-r-0-3-3-r-0-3-3-r-0-3-3-r-0-3/15-15-15-15\\-|

|-----------------------------------------------------------|
|-----------------------------------------------------------|
|-----------------------------------------------------------|
|-3-3-r-0-3-3-r-0-3-3-r-0-3-3/15-17-15\\3-3-r-0-3-3-r-0-3-0-|

|----------------------------------------------3/5-7-5--------------|
|-------------------------------3/5-5-5-3-5-5-5-------7-5/7-5-5-3-5-|
|-------------------------------------------------------------------|
|-3-3-r-0-3-3-r-0-3-3-r-0-3-3-r-------------------------------------|

CHORUS

G|---------------------------------|----------------------0~~~~~~0~~~|
D|---------------------------------|---------------------------------|
A|---------------------------------|---------------------------------|
E|-3---3-3---3-3-3--3---3-3--3-3-1-|-3---3-3---3-3-3--3-----3--3---3-|

|--------------------------------------------------|
|--------------------------------------------------|
|----------------------------------1---1-1---1-3-1-|
|-0---0-0---0-0-0--1---1-1--1-1-1------------------|

G|-0---0-0---0-0-0--0---0-0--0-0----0---0-0---0-0-0--0---0-0--0-|
D|-------------------------------4------------------------------|
A|--------------------------------------------------------------|
E|--------------------------------------------------------------|

|-0-----------------------------------------------------------------------|
|-----3-2---0----------------------------3--------------------------------|
|-------------3-1--0--------------------------------------1--1-1--1-2---1-|
|----------------------3-0--0-0-0--0---0-----1-1-1--1---1-----------------|

G|---------------------------------------------------------------------|
D|---------------------------------------------------------------------|
A|---------------------------------------------------------------------|
E|-3-3-r-3-3-3-r-3-3-3-r-3-3-3-r-3-3-3-r-3-3-3-r-3-3-3-r-3-3-3-r-3-3-r-|x2
comments
We did not receive enough feedback on this tab! Please rate:
print report bad tab
1 2 3 4 5
I want to post or [tab]
guest
You may want to rate the tab now too:
select rating
Please do not post tabs as comments. Select "correction" instead!