Oops, an error
Loading. Please wait.

Another Round Tab

version 3
version 3

Solo

Whole song

Interactive

7,354 views 18 this week
no commentswrite comment
1 2 3 4 5
excellent!
x 5
add to favorites
launch autoscroll
font size
0
reset
how to read this tab
guitar tuner
Tab Pro tools
  • play this tab
  • loop segment
  • change instrument
  • show fretboard
  • metronome
×
Best way to learn
"Another Round"
Autoscroll
slow
fast
+/-
esc
set tempo
stop
Contributor
Difficulty
novice
Song-Another Round
Artist-Foo Fighters
Album-In Your Honor [disc 2]

Standard Tuning
115b.p.m
8th Triplet Feel
Time-3/4

Tabbed by Ben3296(bptrules@hotmail.com)

Verse
-----

e-|3-----3-3---|1-----1-----|1-----1-----|1-----1-1---|0-----0-0-0-|
B-|3-----3-3---|3-----3-3-3-|3-----3-3-3-|3---3-3-3-0-|1-----1-1-1-|
G-|0-----0-0-0-|2-----2-2-2-|2-----2-2-2-|2---2-2-2-0-|2-----2-2-0-|
D-|0-----0-0-0-|0-----0-0-0-|0-----0-0-0-|0---0-0-0-0-|2-----2-2---|
A-|2-------2-0-|------0-----|------------|0-----------|0-----0-0---|
E-|3-------3---|------------|------------|------------|------------|

e-|------3-3-3-|3-----3-3-3-|3-----3-3---|
B-|1-----1-1-1-|1-----1-1-1-|1-----1-1-0-|
G-|0-----0-0-0-|0-----0-0-0-|0-----0-0-0-| play 3
D-|2-----2-2-2-|2-----2-2-2-|2-----2-2-0-| times
A-|3-----3-3-3-|3-----3-3-3-|3-----3-3-0-|
E-|------------|------------|------------|


e-|3-----3-3---|1-----1-----|1-----1-----|1-----1-1---|0-----0-0-0-|
B-|3-----3-3---|3-----3-3-3-|3-----3-3-3-|3---3-3-3-0-|1-1---1-1-0-|
G-|0-----0-0-0-|2-----2-2-2-|2-----2-2-2-|2---2-2-2-0-|2-2---2-2-0-|
D-|0-----0-0-0-|0-----0-0-0-|0-----0-0-0-|0---0-0-0-0-|2-----2-2-0-|
A-|2-------2-0-|------0-----|------------|0-----------|0-----0-0---|
E-|3-------3---|------------|------------|------------|------------|

e-|------3---0-|2-----2-2-2-|2-----2-2---|
B-|1---1-1-1-0-|3---3-3-3-3-|3---3-3-3-0-|
G-|0---0-0-0-0-|2---2-2-2-2-|2---2-2-2-0-|  end
D-|2---2-2-2-0-|0-----0-0-0-|0-----0-0-0-| verse
A-|3-------3---|------------|------------|
E-|------------|------------|------------|


Chorus
------

e-|3-----3-3-3-|3---3-3-3-0-|0-----0-0-0-|0-----0-0-0-|------0-0-0-|
B-|3---3-3-3-3-|3---3-3-3-0-|2-----2-2-2-|2---2-2-2-0-|------3-3-3-|
G-|0---0-0-0-0-|0---0-0-0-0-|0-----0-0-0-|0---0-0-0-0-|------0-0-0-|
D-|0---0-0-0-0-|0---0-0-0-0-|2-----2-2-2-|2---2-2-2---|2-------2---|
A-|x---x---x---|x---x-x-x---|0-----0-0-0-|0-----0-0---|2---2---2---|
E-|3---3---3---|3---3-3-3---|------------|------------|0---0---0---|

e-|0-----0-0---|3-----3---3-|3-----3-3---|
B-|3-----3-3---|4-----4---4-|4-----4-4---|
G-|0---0-0-0/5-|5---5-5-5-5-|5-----5-5-0-| play 2
D-|2---2---2/5-|5---5-5-5-5-|5-----5-5-0-| times
A-|2---2---2/3-|3-------3---|3-----3-3-0-|
E-|0---0---0---|------------|------------|

Then play a verse and a chorus

For the harmonica solo play a verse

Then play 2 choruses

Outro
-----

e-|3-----3-3-3-|3---3-3-3-0-|0-----0-0-0-|0-----0-0-0-|------0---0-|
B-|3---3-3-3-3-|3---3-3-3-0-|2-----2-2-2-|2---2-2-2-0-|------3-3-3-|
G-|0---0-0-0-0-|0---0-0-0-0-|0-----0-0-0-|0---0-0-0-0-|0---0-0-0-0-|
D-|0---0-0-0-0-|0---0-0-0-0-|2-----2-2-2-|2---2-2-2---|2---2---2---|
A-|x---x---x---|x---x-x-x---|0-----0-0-0-|0-----0-0---|2---2---2---|
E-|3---3---3---|3---3-3-3---|------------|------------|0---0---0---|

e-|0-----0-----|3-----------|
B-|3-----3---0-|4-----------|
G-|0-----0-0-0-|5-----------|
D-|2-------2---|5-----------|
A-|2-------2---|3-----------|
E-|0-------0---|------------|

Hope this helps you learn the song.
Apologies for any mistakes although i think its all correct.
comments
print report bad tab
I want to post or [tab]
guest
You may want to rate the tab now too:
select rating
Please do not post tabs as comments. Select "correction" instead!