Oops, an error
Loading. Please wait.

Arlandria Bass Tab

version 1
version 1

Whole song

Interactive

13,495 views 24 this week
2 commentsread comments
1 2 3 4 5
x 5
add to favorites
launch autoscroll
font size
0
reset
guitar tuner
Autoscroll
slow
fast
+/-
esc
set tempo
stop
Help us to improve Ultimate-Guitar.com Take our survey!
×
Author
Difficulty
Intro
G/---------------------------------------------------------------------/
D/---------------------------------------------------------------------/
A/-----11-9-11-----------11-9-------------11-9-11---------11-9-11------/
E/9-12---------12--9--12------12-9---9-12---------12--9-11--------12~~~/

Verse(0:40)
G/--------------------------------------------------/  x 2
D/--------------------------------------------------/
A/--4-4-4-4---0-0-0-0-------------------------------/
E/-------------------------0-0-0-0-0---2-2-2-2-2----/
 
Pre Chorus(0:47)
G/--------------------------------------------------------/
D/--------------------------------------------------------/
A/4-4-4-4-4----0-0-0-0-0---------------2-2-2-2-2-2--------/
E/------------------------0-0-0-0-0-0--------------2-2-2--/

G/-----------------------------------------------/
D/-----------------------------------------------/ 
A/4-4-4-4-4---0-0-0-0-0-----------------2-2-3-3-3/
E/-----------------------0-0-0-0-0-0-------------/


Chorus "You are not me, Arlandria, Arlandria."
G/------------------------------------------------/
D/------------------------------------------------/
A/--4-4-4-4-4---------------0-0-0-0-0--2-2-2-3-3-3/
E/-------------2-0-2-0-2--------------------------/

G/-----------------------------------------------/
D/-----------------------------------------------/
A/4-4-4-4-4---------------0-0-0-0-0--2-2-2-3-3-3/
E/-------------2-0-2-0-2------------------------/


Other (1:21)
G/------------------------------------------/
D/------------------------------------------/
A/--4-0-4-0-------------4-0-4-0-------------/
E/-------------2-0-4-2------------2-0-4-2~~~/
 
Bridge 2:39 "My Sweet Virginia" Same as pre chorus
G/--------------------------------------------------------/
D/--------------------------------------------------------/
A/4-4-4-4-4----0-0-0-0-0---------------2-2-2-2-2-2--------/
E/------------------------0-0-0-0-0-0--------------2-2-2--/


G/-----------------------------------------------/
D/-----------------------------------------------/ 
A/4-4-4-4-4---0-0-0-0-0-----------------2-2-3-3-3/
E/-----------------------0-0-0-0-0-0-------------/
Suggest correction
comments
print report bad tab
2 comments total.
0 reply
Chaosbass67 31 Apr 10, 2011 10:14 PM

There might be one or two fill notes missing, and I'm fairly certain the bass goes into a higher octave for a brief time late on in the song, but all of that's pretty minor, great job.

0 reply
Joeskeppi 75 Apr 16, 2011 07:44 AM

nice effort! Love this track, incredible album

There's a really nice fill in the chorus which you've got wrong, been trying to work it a correction and not getting anywhere, I've got some kind of mental block.

guest
You may want to rate the tab now too:
select rating
Wanna post a correction for this tab? Suggest correction