Oops, an error
Loading. Please wait.

Arlandria Tab

version 1
version 1
62,950 views 33 this week
2 commentsread comments
1 2 3 4 5
accurate
x 8
add to favorites
launch autoscroll
font size
0
reset
how to read this tab
guitar tuner
Tab Pro tools
  • play this tab
  • loop segment
  • change instrument
  • show fretboard
  • metronome
×
Best way to learn
"Arlandria"
Autoscroll
slow
fast
+/-
esc
set tempo
stop
Contributor
Difficulty
intermediate
All right another good song that's handled unofficially
on the net a good week before the release of the record.
Thanks to Ultimate Guitar for that information.

I tabbed it out right after having heard that version for the first time.

It may not be 100% accurate and complete but it's a pretty good start.

There are two lead guitar parts I could not yet figure out.**
Maybe one of you can ...

I'll try to update the tab as soon as possible ...

until then COMMENTS (ON IMPROVEMENTS) ARE WELCOME!


And there we ... go:



Intro:


I don't know for the pitch of some of these notes...
it could be possible that there are two guitars playing the same
notes in different octaves ...
I just mixed it here ...
i think it sounds good like this if you play alone.

e|---------------------------------------------------|
b|-------9-------9-----------------------------------|
G|-----9---11v---------------9-----------------------|
D|-/11-------------11\---/11-------------------------|
A|-----------------------------11-9--7---------------|
E|-------------------------------------9-------------|

e|---------------------------------------------------|
b|-------9-------9-----------------------------------|
G|-----9---11v---------------9-----------------------|
D|-/11-------------11\---/11-------------------------|
A|-----------------------------11-9--11-7~~~~--------|
E|---------------------------------------------------|



There is another guitar just sliding down on the low E string on
the first and third bar of the riff:

e|--------------------------------------------------|
b|--------------------------------------------------|
G|--------------------------------------------------|
D|--------------------------------------------------|
A|--------------------------------------------------|
E|--12\\\\\\\\\\\\\\\\\\\\\\\\\\\-------------------|


____________________________________________________________________________

- 1st - VERSE:


e|---------------------------------------------------|
b|---------------------------------------------------|
G|--6-6-6--------------------------------------------|
D|--6-6-6-7-7-7-7-7-2-2-2-4-4-4-4-4------------------|
A|--4-4-4-7-7-7-7-7-2-2-2-4-4-4-4-4------------------|
E|--------5-5-5-5-5-0-0-0-2-2-2-2-2------------------|
    * * * * * * * * * * * * * * * * P.M.


Check out Howard2k3k's tab for another way to play the verses.


____________________________________________________________________________

- 1st - PRECHORUS:



   "Hush, hush, settle down ..."
e|---------------------------------------------------|
b|---------------------------------------------------|
G|--6-6-6--------------------------------------------|
D|--6-6-6-7-7-7-7-7-2-2-2-4-4-4-4-4------------------|
A|--4-4-4-7-7-7-7-7-2-2-2-4-4-4-4-4------------------|
E|--------5-5-5-5-5-0-0-0-2-2-2-2-2------------------|
    * * * * * * * * * * * * * * * * P.M.


/w FILL-IN 1:

e|--------------------------------------------------|
b|--------------------------------------------------|
G|----11b13-----------------------------------------|
D|--------------------------------------------------|
A|--------------------------------------------------|
E|--------------------------------------------------|

____________________________________________________________________________


CHORUS:


I play just downstrokes, do whatever sounds right to your ears.

e|-------------------------------------------------------------------|
b|-------------------------------------------------------------------|
G|-6-6-6-6-6-6-6-6-----------------------------------4-4-4-4-4-------|
D|-6-6-6-6-6-6-6-6-7-7-7-7-7-7-7-7-2-2-2-2-2-2-2-2-2-4-4-4-4-4-4-4-4-|
A|-4-4-4-4-4-4-4-4-7-7-7-7-7-7-7-7-2-2-2-2-2-2-2-2-2-2-2-2-2-2-4-4-4-|
E|-----------------5-5-5-5-5-5-5-5-0-0-0-0-0-0-0-0-0-----------2-2-2-|


e|-------------------------------------------------------------------|
b|-------------------------------------------------------------------|
G|-6-6-6-6-6-6-6-6-----------------------------------4-4-4-4-5-5-5-5-|
D|-6-6-6-6-6-6-6-6-7-7-7-7-7-7-7-7-2-2-2-2-2-2-2-2-2-4-4-4-4-5-5-5-5-|
A|-4-4-4-4-4-4-4-4-7-7-7-7-7-7-7-7-2-2-2-2-2-2-2-2-2-2-2-2-2-3-3-3-3-|
E|-----------------5-5-5-5-5-5-5-5-0-0-0-0-0-0-0-0-0-----------------|

____________________________________________________________________________


"ARLANDRIA- PART" (2x)


e|--------------------------------------------------|
b|--------------------------------------------------|
G|-6-----------------2-------4----5-----------------|
D|-6--------4--------2-------4----5-----------------|
A|-4--------4--------0-------2----3-----------------|
E|----------2---------------------------------------|


Guitar 2:

e|--------------------------------------------------|
b|--------------------------------------------------|
G|--------------------------9b11--11b13-------------|
D|--------------------------------------------------|
A|--------------------------------------------------|
E|--------------------------------------------------|



____________________________________________________________________________


BRIDGE THING (whatever you wanna call it):



you can also play this twice as fast ...

e|--------------------------------------------------|
b|--------------------------------------------------|
G|-4-4-4-4-4-4-4-4-4-4-4-4-3-3-3-3------------------|
D|--------------------------------------------------|
A|--------------------------------------------------|
E|--------------------------------------------------|


I think this is what the bass plays: just playing along (palm muted) sounds cool... (I 
think they do live anyway)

e|--------------------------------------------------|
b|--------------------------------------------------|
G|--------------------------------------------------|
D|--------------------------------------------------|
A|-4-0-4-2v------------4-2-4-2v---------------------|
E|-----------0-0-0-2v-------------0-0-4-2v----------|


____________________________________________________________________________


- 2nd - VERSE:


e|---------------------------------------------------|
b|---------------------------------------------------|
G|--6-6-6--------------------------------------------|
D|--6-6-6-7-7-7-7-7-2-2-2-4-4-4-4-4------------------|
A|--4-4-4-7-7-7-7-7-2-2-2-4-4-4-4-4------------------|
E|--------5-5-5-5-5-0-0-0-2-2-2-2-2------------------|
    * * * * * * * * * * * * * * * * P.M.


GUITAR 2 (CLEAN) (pretty sure it's accurate):

e|-------0-------0-------0-------0------------------|
b|-------------0---0-----------0---0----------------|
G|----4------4---------4-----3----------------------|
D|--6------4---------6-----4------------------------|
A|--------------------------------------------------|
E|--------------------------------------------------|




THEN:


e|---------------------------------------------------|
b|---------------------------------------------------|
G|--6-6-6--------------------------------------------|
D|--6-6-6-7-7-7-7-7-2-2-2-4-4-4-4-4------------------|
A|--4-4-4-7-7-7-7-7-2-2-2-4-4-4-4-4------------------|
E|--------5-5-5-5-5-0-0-0-2-2-2-2-2------------------|
    * * * * * * * * * * * * * * * * P.M.


Guitar 3:

e|--------------------------------------------------|
b|--------------------------------------------------|
G|--------------------------------------------------|
D|--------------------------------------------------|
A|--------------------------------------------------|
E|--12\\\\\\\\\\\\\\\\\\\\\\\\\\\-------------------|


(((((

THERE IS A DISTORTED GUITAR I HAVE NOT YET FIGURED OUT COMPLETELY
(ALSO PLAYING IN THE NEXT PRECHORUS) **

cant really hear it ... I guess in between the following notes
there are some lower notes played palm muted.

e|--------------------------------------------------|
b|--------------------------------------------------|
G|--4---4-4---4--3-3--------------------------------|
D|--------------------------------------------------|
A|--------------------------------------------------|
E|--------------------------------------------------|    )))))





____________________________________________________________________________


- 2nd - PRECHORUS:

e|---------------------------------------------------|
b|---------------------------------------------------|
G|--6-6-6--------------------------------------------|
D|--6-6-6-7-7-7-7-7-2-2-2-4-4-4-4-4------------------|
A|--4-4-4-7-7-7-7-7-2-2-2-4-4-4-4-4------------------|
E|--------5-5-5-5-5-0-0-0-2-2-2-2-2------------------|
    * * * * * * * * * * * * * * * * P.M.


/w FILL-IN 2:

e|-----------9--------------------------------------|
b|----------12b14-----------------------------------|
G|--------------------------------------------------|
D|--------------------------------------------------|
A|--------------------------------------------------|
E|--------------------------------------------------|



____________________________________________________________________________


dont miss the CHORUS and ARLANDRIA part here ... :)

____________________________________________________________________________

POSTCHORUS THING(whatever you wanna call it):


"MY SWEET VIRGINIA-" Part


SAME CHORDS AS THE CHORUS!



There could be another lead part here already ... really hard to hear **

____________________________________________________________________________

- LAST - VERSE:


e|---------------------------------------------------|
b|---------------------------------------------------|
G|--6-6-6--------------------------------------------|
D|--6-6-6-7-7-7-7-7-2-2-2-4-4-4-4-4------------------|
A|--4-4-4-7-7-7-7-7-2-2-2-4-4-4-4-4------------------|
E|--------5-5-5-5-5-0-0-0-2-2-2-2-2------------------|
    * * * * * * * * * * * * * * * * P.M.



____________________________________________________________________________


- LAST - PRECHORUS Thing: REPEAT:


e|---------------------------------------------------------|
b|---------------------------------------------------------|    \
G|--6-6-6--------------------------------------------------|     \
D|--6-6-6-7-7-7-7-7-2-2-2-4-4-4-4-4------------------------|      \
A|--4-4-4-7-7-7-7-7-2-2-2-4-4-4-4-4------------------------|
E|--------5-5-5-5-5-0-0-0-2-2-2-2-2------------------------|
    * * * * * * * * * * * * * * * * P.M.
								2x

/w FILL IN 1:

e|---------------------------------------------------------|      /
b|---------------------------------------------------------|     /
G|----11b13------------------------------------------------|    /
D|---------------------------------------------------------|
A|---------------------------------------------------------|
E|---------------------------------------------------------|


Then:

e|---------------------------------------------------------|
b|---------------------------------------------------------|    \
G|--6-6-6--------------------------------------------------|     \
D|--6-6-6-7-7-7-7-7-2-2-2-4-4-4-4-4------------------------|      \
A|--4-4-4-7-7-7-7-7-2-2-2-4-4-4-4-4------------------------|
E|--------5-5-5-5-5-0-0-0-2-2-2-2-2------------------------|
    * * * * * * * * * * * * * * * * P.M.

								2x
/w FILL IN 2:

e|-----------9---------------------------------------------|      /
b|----------12b14------------------------------------------|     /
G|---------------------------------------------------------|    /
D|---------------------------------------------------------|
A|---------------------------------------------------------|
E|---------------------------------------------------------|


____________________________________________________________________________


- LAST - CHORUS

____________________________________________________________________________

- LAST - ARLANDRIA PART ...

HERE THERE IS A LEAD/MELODY PART THAT I HAVENT YET FIGURED OUT,  **
It's really hard to hear ...
____________________________________________________________________________


- LAST - POSTCHORUS:



"My sweet Virginia ... "

I think this is played over it:


e|---------------------------------------------------|
b|-------9-------9-----------------------------------|
G|-----9---11v---------------9-----------------------|
D|-/11-------------11\---/11-------------------------|
A|-----------------------------11-9--7---------------|
E|-------------------------------------9-------------|

e|----------------------------7--------9-------------|
b|-------9-------9-----------10b12----12b14----------|
G|-----9---11v---------------------------------------|
D|-/11-------------11\-------------------------------|
A|---------------------------------------------------|
E|---------------------------------------------------|

____________________________________________________________________________


That's all I got so far!

Enjoy, comment, rate ... etc. ...
comments
print report bad tab
2 comments total.
+1 reply
musix1111 wrote on April 2 2011, 06:52 pm


e---------------------------------------------------|
b---------------------------------------------------|
G--4-4-4-4-4-4-4-4-4-4-4-3-3-3-3-3------------------|
D--2-2-2-2-2-2-2-2-2-2-2-2-2-2-2-2------------------|
A--4-4-4-0-0-0-0-0-2-2-2-1-1-1-1-1------------------|
E---------------------------------------------------|


thats how the verse is, and thats how i play it on my cover. Just look up foo fighters arlandria cover and im the one with the gold guitar.

0 reply
Eli4s wrote on April 10 2011, 10:19 am

I made two corrections.

One was just a typing error of mine ... the "Fill-in's" and the lead part in the arlandria part are of couse played on the G-string not the D-string.

And I changed the lead for the very last "My sweet virginia"-part. should be up with in the next two days ...

VERSE:
(@musix1111 thanks ... for that suggestion ... I think that last chord is wrong though ...)

check out version 2 of this song's tabs here on Ultimate Guitar by howard2k or something ... for a more accurate way (probably) to play the verse chords.

I want to post or [tab]
guest
You may want to rate the tab now too:
select rating
Please do not post tabs as comments. Select "correction" instead!