Oops, an error
Loading. Please wait.

Arlandria Bass Tab

version 3
version 3

Whole song

Interactive

4,910 views 9 this week
no commentswrite comment
1 2 3 4 5
accurate
x 7
add to favorites
launch autoscroll
font size
0
reset
guitar tuner
Tab Pro tools
  • play this tab
  • loop segment
  • change instrument
  • show fretboard
  • metronome
×
Best way to learn
"Arlandria"
Autoscroll
slow
fast
+/-
esc
set tempo
stop
Contributor
Difficulty
intermediate
once again, I got a request to post tabs of a song I posted on youtube.
Not a difficult song but it isn't that easy either. One of the other tabs isn't that 
bad, but that person didn't really pay attention to the details.
The only thing im not sure about is some of the strumming in the chorus' but besides 
that it's pretty spot on. Anyways, check out my bass cover of this song!

http://www.youtube.com/watch?v=9XIhHsDx3rs

Also check out my channel for more bass covers!

http://www.youtube.com/user/chrisistheazn

Intro

G|---------------------------------------------------------------------|
D|---------------------------------------------------------------------|
A|------11-9--11--------11-9--------------11-9--11--------11-9--11-----|
E|-9-12-------------9-12------12-9---9-12------------9-12----------12--|

Verse 1

No bass

Pre-Chorus 1

G|-------------------------------------------------------------------|
D|-------------------------------------------------------------------|
A|-4-4-4-0-0-0-0-0-----------------4-4-4-0-0-0-0-0-------------------|
E|-----------------0-0-0-2-2-2-2-2-----------------0-0-0-2-2-2/12\---|

Chorus 1

G|-------------------------------------------------------------------|
D|-------------------------------------------------------------------|
A|-4-4-4-4-4-4-4---0-0-0-0-0-0-0-2---------------0-2-2-2-2-2---------|
E|---------------0-----------------0-0-0-0-0-0-0-------------2-2-2---|

G|-------------------------------------------------------------------|
D|-------------------------------------------------------------------|
A|-4-4-4-4-4-4-4---0-0-0-0-0-0-0-2---------------0-2-2-2-2-3-3-3-3---|
E|---------------0-----------------0-0-0-0-0-0-0---------------------|

G|-------------------------------------------------------------------|
D|-------------------------------------------------------------------|
A|-4-4-4-4---4-4-----4-11-9-------------------------2-2-2-2-3-3-3-3--|
E|---------------0-2----------0-2-4-5-5-5-5-5-5-5-0------------------|

G|-------------------------------------------------------------------|
D|-------------------------------------------------------------------|
A|-4-4-4-4---4-2---------------------------------2-2-2-2-3-3-3-3-----|
E|---------------4-2-2-4---0-2-4-5-5-5-5-5-5-5-0---------------------|

After-Chorus

G|-------------------------------------------------------------------|
D|-------------------------------------------------------------------|
A|-4-0-4-0-------------------------4-0-4-0---------------------------|
E|-----------------0-0-0-2-------------------------0-0-4-2-----------|

Verse 2

Bass comes in at 1:44

G|-------------------------------------------------------------------|
D|-------------------------------------------------------------------|
A|-4-4-4-0-0-0-0-0-----------------4-4-4-0-0-0-0-0-------------------|
E|-----------------0-0-0-2-2-2-2-0-----------------0-0-0-2-2-2-0-2---|

G|-------------------------------------------------------------------|
D|-------------------------------------------------------------------|
A|-4-4-4-0-0-0-0-0---------------------------------------------------|
E|-----------------0-0-0-2-2-2-2-0-----------------------------------|

Pre-Chorus 2

G|-------------------------------------------------------------------|
D|-------------------------------------------------------------------|
A|-4-4-4-0-0-0-0-0-----------------4-4-4-0-0-0-0-0-7-7-7-9-9-9-9\----|
E|-----------------0-0-0-2-2-2-2-2-----------------------------------|

Chorus 2

G|-------------------------------------------------------------------|
D|-------------------------------------------------------------------|
A|-4-4-4-4-4-4-4---0-0-0-0-0-0-0-2---------------0-2-2-2-2-2---------|
E|---------------0-----------------0-0-0-0-0-0-0-------------2-2-2---|

G|-------------------------------------------------------------------|
D|-------------------------------------------------------------------|
A|-4-4-4-4-4-4-4---0-0-0-0-0-0-0-2---------------0-2-2-2-2-3-3-3-3---|
E|---------------0-----------------0-0-0-0-0-0-0---------------------|

G|-------------------------------------------------------------------|
D|-------------------------------------------------------------------|
A|-4-4-4-4---4-4-----4-11-9-------------------------2-2-2-2-3-3-3-3--|
E|---------------0-2----------0-2-4-5-5-5-5-5-5-5-0------------------|

G|-------------------------------------------------------------------|
D|---------------------------------------------2---------------------|
A|-4-4-4-4---4-2---------------------------2-4---2-2-2-2-3-3-3-3-----|
E|---------------4-2-2-4---0-2-4-5-5-5-5-5---------------------------|

Bridge Part 1

G|-------------------------------------------------------------------|
D|-------------------------------------------------------------------|
A|-4-4-4-4-4-4-4---0-0-0-0-0-0-2-4---------------0-2-2-2-2-2---------|
E|---------------0-----------------0-0-0-0-0-0-0-------------2-2-2---|

G|-------------------------------------------------------------------|
D|-------------------------------2-----------------------------------|
A|-4-4-4-4-4-4-4---0-0-0-0-0-2-4-----------------0-2-2-2-2-3-3-3-3-4-|
E|---------------0-----------------0-0-0-0-0-0-0---------------------|

Bridge Part 2

Bass comes in at 3:11

G|-------------------------------------------------------------------|
D|-------------------------------------------------------------------|
A|-4-4-4-0-0-0-0-0-----------------4-4-4-0-0-0-0-0-------------------| x2
E|-----------------0-0-0-2-2-2-2-2-----------------0-0-0-2-2-2-2-2---|

G|---------------------------------------------------------------------------|
D|---------------------------------------------------------14-14-14-16-16-16-|
A|-4-4-4-0-0-0-0-0-7-7-7-9-9-9-9-9-16-16-16-12-12-12-12-12-------------------|
E|---------------------------------------------------------------------------|

Chorus 3

G|-------------------------------------------------------------------|
D|-------------------------------------------------------------------|
A|-4-4-4-4-4-4-4---0-0-0-0-0-0-0-2---------------0-2-2-2-2-2---------|
E|---------------0-----------------0-0-0-0-0-0-0-------------2-2-2---|

G|-------------------------------------------------------------------|
D|-------------------------------------------------------------------|
A|-4-4-4-4-4-4-4---0-0-0-0-0-0-0-2---------------0-2-2-2-2-3-3-3-3---|
E|---------------0-----------------0-0-0-0-0-0-0---------------------|

G|-------------------------------------------------------------------|
D|-------------------------------------------------------------------|
A|-4-4-4-4---4-4-----4-11-9-------------------------2-2-2-2-3-3-3-3--|
E|---------------0-2----------0-2-4-5-5-5-5-5-5-5-0------------------|

G|-------------------------------------------------------------------|
D|-------------------------------------------------------------------|
A|-4-4-4-4---4-2---------------------------------2-2-2-2-3-3-3-3-----|
E|---------------4-2-2-4---0-2-4-5-5-5-5-5-5-5-0---------------------|

Outro

G|-------------------------------------------------------------------|
D|-----------------------------------------------2-------------------|
A|-4-4-4-4-4-4-2-------------------------------4---2-2-2-2-3-3-3-3---|
E|---------------4-2-2-4-2-2-0-2-4-5-5-5-5-5-0-----------------------|

G|-------------------------------------------------------------------|
D|-----------------------------------------------2-------------------|
A|-4-4-4-4-4-4-2-----------------------------2-4---2-2-2-2-3-3-3-3---|
E|---------------4-2-2-4-2-2-0-2-4-5-5-5-5-5-------------------------|



| /  slide up
| \  slide down
| h  hammer-on
| p  pull-off
| ~  vibrato
| +  harmonic
| x  Mute note
comments
print report bad tab
I want to post or [tab]
guest
You may want to rate the tab now too:
select rating
Please do not post tabs as comments. Select "correction" instead!