Oops, an error
Loading. Please wait.

Arlandria Tab

version 4
version 4
14,498 views 1 this week
no commentswrite comment
1 2 3 4 5
please rate
add to favorites
launch autoscroll
font size
0
reset
how to read this tab
guitar tuner
Autoscroll
slow
fast
+/-
esc
set tempo
stop
Help us to improve Ultimate-Guitar.com Take our survey!
×
Author
Difficulty
intermediate
Foo Fighters - Arlandria

Tabbed by	: Timboozle
Date		: 4/16/2011
Source		: http://www.youtube.com/watch?v=Xnmzins2Uow
Tuning		: Standard E

########
# INTRO
#############

e -------------------------------------------------------------|
B -------------------------------------------------------------|
G -------------------------------------------------------------|
D -------------------------------------------------------------|
A ----------11--9--11--14/-----------11--9---------------------|
E ---9--12-------------12/----9--12---------12--9--------------|

e -------------------------------------------------------------|
B -------------------------------------------------------------|
G -------------------------------------------------------------|
D -------------------------------------------------------------|
A ----------11--9--11--14/-----------11--9--11-----------------|
E ---9--12-------------12/----9--12-------------12~------------|


########
# VERSE
#############

e -------------------------------------------------------------|
B -------------------------------------------------------------|
G ---444--44444--444--33333------------------------------------|
D ---xxx--xxxxx--xxx--xxxxx------------------------------------|
A ---444--00000--xxx--xxxxx------------------------------------|
E ---------------000--22222------------------------------------|
pm   ...  .....  ...  .....  				     x9


########
# CHORUS/BRIDGE
#############

e -------------------------------------------------------------|
B -------------------------------------------------------------|
G ---66666666--22222222--11111111--4444------------------------|
D ---66666666--22222222--22222222--4444-444--------------------|
A ---44444444--00000000--22222222--2222-444--------------------|
E -----------------------00000000-------222--------------------|

e -------------------------------------------------------------|
B -------------------------------------------------------------|
G ---66666666--22222222--11111111--44445555--------------------|
D ---66666666--22222222--22222222--44445555--------------------|
A ---44444444--00000000--22222222--22223333--------------------|
E -----------------------00000000------------------------------|


########
# POST-CHORUS
#############

e -------------------------------------------------------------|
B -------------------------------------------------------------|
G ---6~-----6----------------------44445555--------------------|
D ---6~-----6--4~-----4--2~-----2--44445555--------------------|
A ---4~-----4--4~-----4--2~-----2--22223333--------------------|
E -------------2~-----2--0~-----0------------------------------|
							     x2

 					      (first time only)
e -------------------------------------------------------------|
B -------------------------------------------------------------|
G ---44444444444433333-----------------------------------------|
D ---66666666666644444-----------------------------------------|
A -------------------------------------------------------------|
E -------------------------------------------------------------|
							     x2


########
# 2nd VERSE
#############

e -------------------------------------------------------------|
B -------------------------------------------------------------|
G ---444--44444--444--33333------------------------------------|
D ---xxx--xxxxx--xxx--xxxxx------------------------------------|
A ---444--00000--xxx--xxxxx------------------------------------|
E ---------------000--22222------------------------------------|
pm   ...  .....  ...  .....  				     x4

						   (distortion)
e -------------------------------------------------------------|
B -------------------------------------------------------------|
G -----4-----4---4-----4-----3---3-----------------------------|
D -------------------------------------------------------------|
A ---4---4-0---0---0-------------------------------------------|
E -------------------0---0-2---2---2---------------------------|
pm   .   . .   .   . .   . .   .   .			     x5
Suggest correction
What's this?
You can suggest a correction to this tab. Community and Mods will review your correction and vote to approve or reject it.
comments
We did not receive enough feedback on this tab! Please rate:
print report bad tab
1 2 3 4 5
guest
You may want to rate the tab now too:
select rating
Please do not post tabs as comments. Select "correction" instead!