Oops, an error
Loading. Please wait.

Aurora Bass Tab

version 2
version 2

Whole song

Interactive

5,010 views 1 this week
no commentswrite comment
1 2 3 4 5
x 4
add to favorites
launch autoscroll
font size
0
reset
guitar tuner
Autoscroll
slow
fast
+/-
esc
set tempo
stop
Help us to improve Ultimate-Guitar.com Take our survey!
×
Foo Fighters, Aurora.
 Tabbed by Dan, Brak4823@aol.com.
  

        \"AURORA\"
         by the Foo Fighters
         ~Tabbed COMPLETELY by ear by me, 8-15-01

        PRE-VERSE: 0:12
G| |--------------|---------------|---------------|---------------| |
D|*|---7-----7----|----7-----7----|----4-----4----|----6-----9----|*|
A|*|--------------|---------------|---------------|---------------|*|
E| |-5---5-5---5--|--5---5-5---5--|--2---2-2---2--|--4---4-7---7__| |
                              (repeat 1x)

 0:25   VERSE:
G| |--------------|--------------|--------------|---------------| |
D|*|--------------|--------------|--------------|---------------|*|
A|*|--------------|--------------|--------------|---------------|*|
E| |-5-5-5-5-5-5__|-5-5-5-5-5-5__|\\2-2-2-2-2-2__|-4-4-4/7-7-7__\\| |
                              (repeat 5x)

 1:12   PRE-CHORUS:
G| |------------------------------| |
D|*|------------------------------|*|
A|*|-----4-7----2-4-4-2-----------|*|
E| |-5___----4----------0-2--0--5-| |
              (repeat 1x)

 1:24
G|---------------|--------------|----------------------|
D|--6____--------|-/7-----------|--7-----------4---4-6-|
A|--------7-5____|----5--5/9-7--|----7-5-4-5-7---7-----|
E|---------------|--------------|----------------------|

 1:32
G|------------------------------|
D|-7___-------------------------|
A|-----4-7----2-4-4-2-----------|
E|---------4----------0-2--0--5-|

        CHORUS:
 1:37 =======2nd ending=======|
G| |----------------|----------------| |
D|*|----------------|/7--6-4---------|*|
A|*|-5--4-------4-7-|--------7-4-----|*|
E| |------7-5-7-----|------------7-5-| |
              (repeat 2x)
 1:45
G|----------------|----------------| |-----------------------| |
D|----------------|/7--6-4---------|*|-----------------------|*|
A|-5--4-------4-7-|--------7-4-----|*|-----------------------|*|
E|------7-5-7-----|------------7-5-| |-1__1-1-1-3__3-3--5____| |
                                              (repeat 1x)

 1:55   PRE-VERSE: same as first time
 2:09   VERSE: repeat 4x instead of 6x
 2:40   PRE-CHORUS: same as first time
 3:05   CHORUS: same as first time

 3:24   BRIDGE:

G|------------------|------------------|----------------------------|
D|------------------|------------------|----------------------------|
A|-4-4-4-4-2--------|-4-4-4-4-2--------|-4-4-4-4-2------------------|
E|-----------5-2____|-----------5-0____|-----------5\\1-1-1-1--3--5__|

G|------------|------------------|------------------------------|
D|------------|------------------|------------------------------|
A|-4-2--------|-4-4-4-4-2--------|-4-4-4-4-2--------------------|
E|-----5-2____|-----------5-0____|-----------5\\1-1-1-1--3--5____|

 3:48   CHORUS: same as previous two times, except repeat last measure
        3x instead of 1x and let sustain

 4:27
G|--------|--------|--------| |-------|--------|--------|--------| |
D|--------|--------|--------|*|-------|--------|--------|--------|*|
A|--------|--------|--------|*|-------|--------|--------|--------|*|
E|-5______|\\2______|/4__/7__| |\\5_____|-5______|\\2______|/4__/7__| |
                                          (repeat 2x)

        The rest of the song is mostly low A's. At the end of the song,
        you play this randomly:
G|-------|
D|-------|
A|-/4-0__|                            THE END!!!!!!!!!!
E|-------|


        Notes: (in order they appear)

          | |-----------| |
        - |*|-----------|*| - repeat this measure the specified number of
          |*|-----------|*|   times. Note that \"repeat 6x\" does NOT mean
          | |-----------| |   PLAY 6x. When something is specified as
                              \"repeat 6x,\" that particular riff is played
                              SEVEN TIMES overall!
 
        - 15___ - let particular note sustain
        - \\ - slide down
        - / - slide up, son!
        - =======2nd ending======| - play up until \"==|\" when repeated 
        
        Questions? Comments? Too bad! I've probably changed my e-mail since
        this file was submitted. 
:: Ultimate Guitar Archive :: 
http://www.ultimate-guitar.com 



Suggest correction
comments
print report bad tab
guest
You may want to rate the tab now too:
select rating
Wanna post a correction for this tab? Suggest correction