Oops, an error
Loading. Please wait.

Aurora Tab

version 2
version 2

Whole song

Interactive

56,093 views 57 this week
3 commentsread comments
1 2 3 4 5
excellent!
x 14
add to favorites
launch autoscroll
font size
0
reset
how to read this tab
guitar tuner
Autoscroll
slow
fast
+/-
esc
set tempo
stop
Help us to improve Ultimate-Guitar.com Take our survey!
×
good one,good luck.
J.C.B
Aurora - Foo Fighters
(Normal Tuning)


[Intro/Verse]

(I ain't finished, so this is the verse for now)
e|---------------------------||
B|---------------------------||
G|--------6-7---9-----6-7----||
D|--7-6-9-----7---9-7--------||
A|--0-0-0-----0-----0--------||
E|------------------------0--||


[Verse]

Guitar 2 (w/delay, not as harsh as guitar 1)
e|-7------------|-7---------------|-7------------7------|-7---------------|
B|-10--9---9----|-10--10---9---10-|-10--9---10-----10---|-10--9---9---9---|
G|-9-----9----9-|-9------9---9----|-9-----9----9------9-|-9-----9---9---9-|
D|-7------------|-7---------------|-7-------------------|-7---------------|
A|--------------|-----------------|---------------------|-----------------|
E|--------------|-----------------|---------------------|-----------------|

e|-7---------------|-7------------7---------|--0------------------|
B|-10--10---10-----|-10--9----9-----10--9---|--10--10---10---10---|
G|-9------9----9-9-|-9-----9----9---------9-|--9------9----9----9-|
D|-7---------------|-7----------------------|--7------------------|
A|-----------------|------------------------|---------------------|
E|-----------------|------------------------|---------------------|


[Chorus]

   (Gtr. 1)
e|-----------------------------------------------|
B|-----------------------------------------------|
G|-14-14-14-14-14-14--13-13-13-13-13--13-11-11-9-|
D|-----------------------------------------------|
A|-12-12-12-12-12-12--11-11-11-11-11--11-9--9--7-|
E|-----------------------------------------------|
 |
 |(Gtr. 2)
e|-7--7--7--7--7--7---7-7-7-7-7--7-7-7-7--|
B|-10-10-10-10-10-10--9-9-9-9-9--9-7-7-10-|
G|-9--9--9--9--9--9---9-9-9-9-9--9-9-9-9--|
D|-7--7--7--7--7--7---7-7-7-7-7--7-7-7-7--|
A|----------------------------------------|
E|----------------------------------------|
Play twice then

   (Gtr. 1) 
e|------------------------------------------|
B|-3---3---3-3-3-3-3-3-7-7-7-10-10-10-10-10-|
G|-2---2---2-2-2-4-4-4-7-7-7-11-11-11-9--11-|
D|-0---0---0-0-0-0-0-0-0-0-0-0--0--0--0--0--|
A|------------------------------------------|
E|------------------------------------------|
 |
 |(Gtr. 2)
e|---------------------------------------------|
B|---------------------------------------------|
G|---------7-7-7-9-9-9-11-11-11-14-14-14-14-14-|
D|---------------------------------------------|
A|---------5-5-5-7-7-7-9--9--9--12-12-12-12-12-|
E|---------------------------------------------|

   (Gtr. 1)
e|-----------------------------------------------|
B|-----------------------------------------------|
G|-14-14-14-14-14-14--13-13-13-13-13--13-11-11-9-|
D|-----------------------------------------------|
A|-12-12-12-12-12-12--11-11-11-11-11--11-9--9--7-|
E|-----------------------------------------------|
 |
 |(Gtr. 2)
e|-7--7--7--7--7--7---7-7-7-7-7--7-7-7-7--|
B|-10-10-10-10-10-10--9-9-9-9-9--9-7-7-10-|
G|-9--9--9--9--9--9---9-9-9-9-9--9-9-9-9--|
D|-7--7--7--7--7--7---7-7-7-7-7--7-7-7-7--|
A|----------------------------------------|
E|----------------------------------------|

   (Gtr. 1)
e|------------------------------|
B|------------------------------|
G|-7-6-4---4-6-7----------------|
D|----------------7-6-4-2-------|
A|-5-4-2-0-2-4-5----------4-2-0-|
E|------------------------------|
 |
 |(Gtr. 2)
e|-2-2-2-2-2-2-2----------------|
B|-3-3-3-3-3-3-3--2-2-2-2-2-2-2-|
G|-2-2-2-2-2-2-2--2-2-2-2-2-2-2-|
D|-0-0-0-0-0-0-0--2-2-2-2-2-2-2-|
A|----------------0-0-0-0-0-0-0-|
E|------------------------------|

   (Gtr. 1)
e|------------------------------|
B|------------------------------|
G|-7-6-4---4-6-7----------------|
D|----------------7-6-4-2-2-----|
A|-5-4-2-0-2-4-5----------------|
E|------------------------------|
 |
 |(Gtr. 2)
e|-2-2-2-2-2-2-2----------------|
B|-3-3-3-3-3-3-3--2-2-2-2-2-2-2-|
G|-2-2-2-2-2-2-2--2-2-2-2-2-2-2-|
D|-0-0-0-0-0-0-0--2-2-2-2-2-2-2-|
A|----------------0-0-0-0-0-0-0-|
E|------------------------------|

   (Gtr. 1)
e|------------------------------|
B|------------------------------|
G|-7-6-4---4-6-7----------------|
D|----------------7-6-4-2-------|
A|-5-4-2-0-2-4-5----------4-2-0-|
E|------------------------------|
 |
 |(Gtr. 2)
e|-2-2-2-2-2-2-2----------------|
B|-3-3-3-3-3-3-3--2-2-2-2-2-2-2-|
G|-2-2-2-2-2-2-2--2-2-2-2-2-2-2-|
D|-0-0-0-0-0-0-0--2-2-2-2-2-2-2-|
A|----------------0-0-0-0-0-0-0-|
E|------------------------------|

   (Gtr. 1)
e|----------------------|
B|------------------2-0-|
G|----0----0----2-0-----|
D|----------------------|
A|----------------------|
E|----------------------|
 |
 |(Gtr. 2)
e|-1----3-------|
B|-1----3----2--|
G|-2----0----2--|
D|-3----0----2--|
A|-3----2----0--|
E|-1----3-------|

   (Gtr. 1)
e|---------------|
B|---------------|
G|----0----0-----|
D|---------------|
A|---------------|
E|---------------|
 |
 |(Gtr. 2)
e|-1----3-------|
B|-1----3----2--|
G|-2----0----2--|
D|-3----0----2--|
A|-3----2----0--|
E|-1----3-------|

End of 2nd chorus
   (Gtr. 1)
e|-------------|
B|-------------|
G|-------------|
D|-------------|
A|-4-4-4-4-2-0-|
E|-------------|


[Bridge]

   (Gtr. 1)
e|-----0-----------------------0----|
B|---0---0-------------------0---0--|
G|-2-------2---------------1--------|
D|----------------------------------|
A|----------------------------------|
E|----------------------------------|
 |
 |(Gtr. 2)
e|---------------------------------------------|
B|---------------------------------------------|
G|---------------------------------------------|
D|-4---------------------2---------------------|
A|-4--------4-4-4-4-2-0--2---------4-4-4-4-2-0-|
E|-2---------------------0---------------------|

   (Gtr. 1)
e|------------|
B|------------|
G|---------0--|
D|-----2------|
A|-0----------|
E|------------|
 |
 |(Gtr. 2)
e|-------------------------------|
B|------------2-2-2--------------|
G|------------2-2-2--------------|
D|-3-3-3-3-5--2-2-2--------------|
A|-3-3-3-3-5--0-0-0--4-4-4-4-2-0-|
E|-1-1-1-1-3---------------------|

   (Gtr. 1)
e|-----0-----------------------0----|
B|---0---0-------------------0---0--|
G|-2-------2---------------1--------|
D|----------------------------------|
A|----------------------------------|
E|----------------------------------|
 |
 |(Gtr. 2)
e|---------------------------------------------|
B|---------------------------------------------|
G|---------------------------------------------|
D|-4---------------------2---------------------|
A|-4--------4-4-4-4-2-0--2---------4-4-4-4-2-0-|
E|-2---------------------0---------------------|

   (Gtr. 1)
e|------------|
B|------------|
G|---------0--|
D|-----2------|
A|-0----------|
E|------------|
 |
 |(Gtr. 2)
e|-------------------------------|
B|------------2-2-2-2-2-2-2-2-2--|
G|------------2-2-2-2-2-2-2-2-2--|
D|-3-3-3-3-5--2-2-2-2-2-2-2-2-2--|
A|-3-3-3-3-5--0-0-0-0-0-0-0-0-0--|
E|-1-1-1-1-3---------------------|


[Outro]

e|-----------------------|
B|-----------------------|
G|-------6-7---9-----6-7-| Repeatedly
D|-7-6-9-----7---9-7-----|
A|-0-0-0-----0-----0-----|
E|-----------------------|

Later repeated accompanied by
e|-7------------7------|
B|-10--9---10-----10---|
G|-9-----9----9------9-|
D|-7-------------------|
A|---------------------|
E|---------------------|

After build up on drums and bass

   (Gtr. 1)
e|-7--7--7--7--7--7-7-7-7-7-7-7-|
B|-10-10-10-10-10-9-9-9-9-9-9-9-|
G|-9--9--9--9--9--9-9-9-9-9-9-9-|
D|-7--7--7--7--7--7-7-7-7-7-7-7-|
A|------------------------------|
E|------------------------------|
 |
 |(Gtr. 2)
e|-----------------------------------------------------------------------|
B|-----------------------------------------------------------------------|
G|-14-14-14-14-14-13-13-13-11-9-9-9--14-14-14-14-14-16-16-16-18-18-18-18-|
D|-----------------------------------------------------------------------|
A|-12-12-12-12-12-11-11-11-9--7-7-7--12-12-12-12-12-14-14-14-16-16-16-16-|
E|-----------------------------------------------------------------------|

   (Gtr. 1)
e|-7--7--7--7--7--7-7-7-7-7-7-7-|
B|-10-10-10-10-10-9-9-9-9-9-9-9-|
G|-9--9--9--9--9--9-9-9-9-9-9-9-|
D|-7--7--7--7--7--7-7-7-7-7-7-7-|
A|------------------------------|
E|------------------------------|
 |
 |(Gtr. 2)
e|-------------------------------------|
B|-------------------------------------|
G|-14-14-14-14-14-16-16-16-18-18-18-18-|
D|-------------------------------------|
A|-12-12-12-12-12-14-14-14-16-16-16-16-|
E|-------------------------------------|

   (Gtr. 1)
e|-7--7--7--7--7--7-7-7-7-7-7-7-|
B|-10-10-10-10-10-9-9-9-9-9-9-9-|
G|-9--9--9--9--9--9-9-9-9-9-9-9-|
D|-7--7--7--7--7--7-7-7-7-7-7-7-|
A|------------------------------|
E|------------------------------|
 |
 |(Gtr. 2)
e|-----------------------------------------------------------------------|
B|-----------------------------------------------------------------------|
G|-14-14-14-14-14-13-13-13-11-9-9-9--14-14-14-14-14-16-16-16-18-18-18-18-|
D|-----------------------------------------------------------------------|
A|-12-12-12-12-12-11-11-11-9--7-7-7--12-12-12-12-12-14-14-14-16-16-16-16-|
E|-----------------------------------------------------------------------|

   (Gtr. 1)
e|-7--7--7--7--7--7-7-7-7-7-7-7-|
B|-10-10-10-10-10-9-9-9-9-9-9-9-|
G|-9--9--9--9--9--9-9-9-9-9-9-9-|
D|-7--7--7--7--7--7-7-7-7-7-7-7-|
A|------------------------------|
E|------------------------------|
 |
 |(Gtr. 2)
e|-------------------------------------|
B|-------------------------------------|
G|-14-14-14-14-14-16-16-16-18-18-18-18-|
D|-------------------------------------|
A|-12-12-12-12-12-14-14-14-16-16-16-16-|
E|-------------------------------------|

   (Gtr. 1)
e|---------------------------------------------------------------|
B|---------------------------------------------------------------|
G|---------------------------------------------------------------|
D|-14-16-13-14-11-13-9-11-13-14-16-13-14-16-18-16-14-16-13-13-14-|
A|---------------------------------------------------------------|
E|---------------------------------------------------------------|

From this riff on Guitar 2 just strums a normal A chord

   (Gtr. 1)
e|------|
B|------|
G|--14--| Repeatedly
D|------|
A|------|
E|------|

   (Gtr. 2)
e|-----------------------|
B|-----------------------|
G|-------6-7---9-----6-7-| Repeatedly till end
D|-7-6-9-----7---9-7-----|
A|-0-0-0-----0-----0-----|
E|-----------------------|
Suggest correction
comments
print report bad tab
3 comments total.
0 reply
Big Bhoy 140 wrote on July 16 2004, 12:00 am

far far supeior to the previous tab. good job.

0 reply
RHCP_Nirvana_FF 133 wrote on October 7 2011, 03:04 pm

I think this sounds better as the main 'riff' and works better with the outro -

e||-------------------------|
b||-------------------------|
g||-------------------------|
d||-7-6-11h12--14-9p7-11h12-|
a||-0-0--0--0---0-0-0--0--0-|
e||-------------------------|

and here is an often variation which usually gets played -

e||-------------------------|
b||-------------------------|
g||-------------------------|
d||-7-6-11h12--14-9p7-12p11-|
a||-0-0--0--0---0-0-0--0--0-|
e||-------------------------|

Overall the rest seems very good! Good tab.

0 reply
Svennie149 37 wrote on July 1 2012, 10:06 am

i have searched on youtube for a live version: http://www.youtube.com/watch?v=fYwzievke_k&feature=related, i think its played like this, in this live version.

e---------------------------------
b---------------------------------
g---------------------------------
d--7-6--9-11-12-7--14-9----11-12
a-0----0----0-----0-----0-0------
e---------------------------------

guest
You may want to rate the tab now too:
select rating
Wanna post a correction for this tab? Suggest correction