Oops, an error
Loading. Please wait.

Aurora Tab

version 3
version 3

Whole song

Interactive

2,595 views 3 this week
no commentswrite comment
1 2 3 4 5
3 more votes to show rating
add to favorites
launch autoscroll
font size
0
reset
how to read this tab
guitar tuner
Autoscroll
slow
fast
+/-
esc
set tempo
stop
Help us to improve Ultimate-Guitar.com Take our survey!
×
Author
Aurora - Foo Fighters
Album: 1999 - There Is Nothing Left To Lose
Tuning: eBGDAE

I don't take any credit for this tab.
This particular tab comes from FFtabs which is a great website for any Foo Fighters fan.
The tab is a little different from other ones here but I think it's a little bit better.
Anway this is how it goes.

Intro/Verse (I ain't finished, so this is the verse for now)
e||------------------------------------||
b||------------------------------------||
g||-----------------7-----9------------||
d||----7-6---9-11-----7-----9---11-12--||
a||--0-----0------0-----0-----0--------||
e||------------------------------------||

Verse - Guitar 2 (w/delay, not as harsh as guitar 1)
e|-7------------|-7---------------|-7------------7------|-7---------------|
b|-10--9---9----|-10--10---9---10-|-10--9---10-----10---|-10--9---9---9---|
g|-9-----9----9-|-9------9---9----|-9-----9----9------9-|-9-----9---9---9-|
d|-7------------|-7---------------|-7-------------------|-7---------------|
a|--------------|-----------------|---------------------|-----------------|
e|--------------|-----------------|---------------------|-----------------|

e|-7---------------|-7------------7---------|--0------------------|
b|-10--10---10-----|-10--9----9-----10--9---|--10--10---10---10---|
g|-9------9----9-9-|-9-----9----9---------9-|--9------9----9----9-|
d|-7---------------|-7----------------------|--7------------------|
a|-----------------|------------------------|---------------------|
e|-----------------|------------------------|---------------------|


Chorus
   (Gtr. 1)
e||-----------------------------------------------|
b||-----------------------------------------------|
g||-14-14-14-14-14-14--13-13-13-13-13--13-11-11-9-|
d||-----------------------------------------------|
a||-12-12-12-12-12-12--11-11-11-11-11--11-9--9--7-|
e||-----------------------------------------------|
 ||
 ||(Gtr. 2)
e||-7--7--7--7--7--7---7-7-7-7-7--7-7-7-7--|
b||-10-10-10-10-10-10--9-9-9-9-9--9-7-7-10-|
g||-9--9--9--9--9--9---9-9-9-9-9--9-9-9-9--|
d||-7--7--7--7--7--7---7-7-7-7-7--7-7-7-7--|
a||----------------------------------------|
e||----------------------------------------|
Play twice then

   (Gtr. 1)
e||------------------------------------------|
b||-3---3---3-3-3-3-3-3-7-7-7-10-10-10-10-10-|
g||-2---2---2-2-2-4-4-4-7-7-7-11-11-11-9--11-|
d||-0---0---0-0-0-0-0-0-0-0-0-0--0--0--0--0--|
a||------------------------------------------|
e||------------------------------------------|
 ||
 ||(Gtr. 2)
e||---------------------------------------------|
b||---------------------------------------------|
g||---------7-7-7-9-9-9-11-11-11-14-14-14-14-14-|
d||---------------------------------------------|
a||---------5-5-5-7-7-7-9--9--9--12-12-12-12-12-|
e||---------------------------------------------|

   (Gtr. 1)
e||-----------------------------------------------|
b||-----------------------------------------------|
g||-14-14-14-14-14-14--13-13-13-13-13--13-11-11-9-|
d||-----------------------------------------------|
a||-12-12-12-12-12-12--11-11-11-11-11--11-9--9--7-|
e||-----------------------------------------------|
 ||
 ||(Gtr. 2)
e||-7--7--7--7--7--7---7-7-7-7-7--7-7-7-7--|
b||-10-10-10-10-10-10--9-9-9-9-9--9-7-7-10-|
g||-9--9--9--9--9--9---9-9-9-9-9--9-9-9-9--|
d||-7--7--7--7--7--7---7-7-7-7-7--7-7-7-7--|
a||----------------------------------------|
e||----------------------------------------|

   (Gtr. 1)
e||------------------------------|
b||------------------------------|
g||-7-6-4---4-6-7----------------|
d||----------------7-6-4-2-------|
a||-5-4-2-0-2-4-5----------4-2-0-|
e||------------------------------|
 ||
 ||(Gtr. 2)
e||-2-2-2-2-2-2-2----------------|
b||-3-3-3-3-3-3-3--2-2-2-2-2-2-2-|
g||-2-2-2-2-2-2-2--2-2-2-2-2-2-2-|
d||-0-0-0-0-0-0-0--2-2-2-2-2-2-2-|
a||----------------0-0-0-0-0-0-0-|
e||------------------------------|

   (Gtr. 1)
e||------------------------------|
b||------------------------------|
g||-7-6-4---4-6-7----------------|
d||----------------7-6-4-2-2-----|
a||-5-4-2-0-2-4-5----------------|
e||------------------------------|
 ||
 ||(Gtr. 2)
e||-2-2-2-2-2-2-2----------------|
b||-3-3-3-3-3-3-3--2-2-2-2-2-2-2-|
g||-2-2-2-2-2-2-2--2-2-2-2-2-2-2-|
d||-0-0-0-0-0-0-0--2-2-2-2-2-2-2-|
a||----------------0-0-0-0-0-0-0-|
e||------------------------------|

   (Gtr. 1)
e||------------------------------|
b||------------------------------|
g||-7-6-4---4-6-7----------------|
d||----------------7-6-4-2-------|
a||-5-4-2-0-2-4-5----------4-2-0-|
e||------------------------------|
 ||
 ||(Gtr. 2)
e||-2-2-2-2-2-2-2----------------|
b||-3-3-3-3-3-3-3--2-2-2-2-2-2-2-|
g||-2-2-2-2-2-2-2--2-2-2-2-2-2-2-|
d||-0-0-0-0-0-0-0--2-2-2-2-2-2-2-|
a||----------------0-0-0-0-0-0-0-|
e||------------------------------|

   (Gtr. 1)
e||----------------------|
b||------------------2-0-|
g||----0----0----2-0-----|
d||----------------------|
a||----------------------|
e||----------------------|
 ||
 ||(Gtr. 2)
e||-1----3-------|
b||-1----3----2--|
g||-2----0----2--|
d||-3----0----2--|
a||-3----2----0--|
e||-1----3-------|

   (Gtr. 1)
e||---------------|
b||---------------|
g||----0----0-----|
d||---------------|
a||---------------|
e||---------------|
 ||
 ||(Gtr. 2)
e||-1----3-------|
b||-1----3----2--|
g||-2----0----2--|
d||-3----0----2--|
a||-3----2----0--|
e||-1----3-------|

End of 2nd chorus
   (Gtr. 1)
e||-------------|
b||-------------|
g||-------------|
d||-------------|
a||-4-4-4-4-2-0-|
e||-------------|


Bridge
   (Gtr. 1)
e||-----0-----------------------0----|
b||---0---0-------------------0---0--|
g||-2-------2---------------1--------|
d||----------------------------------|
a||----------------------------------|
e||----------------------------------|
 ||
 ||(Gtr. 2)
e||---------------------------------------------|
b||---------------------------------------------|
g||---------------------------------------------|
d||-4---------------------2---------------------|
a||-4--------4-4-4-4-2-0--2---------4-4-4-4-2-0-|
e||-2---------------------0---------------------|

   (Gtr. 1)
e||------------|
b||------------|
g||---------0--|
d||-----2------|
a||-0----------|
e||------------|
 ||
 ||(Gtr. 2)
e||-------------------------------|
b||------------2-2-2--------------|
g||------------2-2-2--------------|
d||-3-3-3-3-5--2-2-2--------------|
a||-3-3-3-3-5--0-0-0--4-4-4-4-2-0-|
e||-1-1-1-1-3---------------------|

   (Gtr. 1)
e||-----0-----------------------0----|
b||---0---0-------------------0---0--|
g||-2-------2---------------1--------|
d||----------------------------------|
a||----------------------------------|
e||----------------------------------|
 ||
 ||(Gtr. 2)
e||---------------------------------------------|
b||---------------------------------------------|
g||---------------------------------------------|
d||-4---------------------2---------------------|
a||-4--------4-4-4-4-2-0--2---------4-4-4-4-2-0-|
e||-2---------------------0---------------------|

   (Gtr. 1)
e||------------|
b||------------|
g||---------0--|
d||-----2------|
a||-0----------|
e||------------|
 ||
 ||(Gtr. 2)
e||-------------------------------|
b||------------2-2-2-2-2-2-2-2-2--|
g||------------2-2-2-2-2-2-2-2-2--|
d||-3-3-3-3-5--2-2-2-2-2-2-2-2-2--|
a||-3-3-3-3-5--0-0-0-0-0-0-0-0-0--|
e||-1-1-1-1-3---------------------|


Outro
e||-----------------------|
b||-----------------------|
g||-------6-7---9-----6-7-| Repeatedly
d||-7-6-9-----7---9-7-----|
a||-0-0-0-----0-----0-----|
e||-----------------------|

Later repeated accompanied by
e||-7------------7------|
b||-10--9---10-----10---|
g||-9-----9----9------9-|
d||-7-------------------|
a||---------------------|
e||---------------------|

After build up on drums and bass

   (Gtr. 1)
e||-7--7--7--7--7--7-7-7-7-7-7-7-|
b||-10-10-10-10-10-9-9-9-9-9-9-9-|
g||-9--9--9--9--9--9-9-9-9-9-9-9-|
d||-7--7--7--7--7--7-7-7-7-7-7-7-|
a||------------------------------|
e||------------------------------|
 ||
 ||(Gtr. 2)
e||-----------------------------------------------------------------------|
B||-----------------------------------------------------------------------|
G||-14-14-14-14-14-13-13-13-11-9-9-9--14-14-14-14-14-16-16-16-18-18-18-18-|
D||-----------------------------------------------------------------------|
A||-12-12-12-12-12-11-11-11-9--7-7-7--12-12-12-12-12-14-14-14-16-16-16-16-|
E||-----------------------------------------------------------------------|

   (Gtr. 1)
e||-7--7--7--7--7--7-7-7-7-7-7-7-|
b||-10-10-10-10-10-9-9-9-9-9-9-9-|
g||-9--9--9--9--9--9-9-9-9-9-9-9-|
d||-7--7--7--7--7--7-7-7-7-7-7-7-|
a||------------------------------|
e||------------------------------|
 ||
 ||(Gtr. 2)
e||-------------------------------------|
B||-------------------------------------|
G||-14-14-14-14-14-16-16-16-18-18-18-18-|
D||-------------------------------------|
A||-12-12-12-12-12-14-14-14-16-16-16-16-|
E||-------------------------------------|

   (Gtr. 1)
e||-7--7--7--7--7--7-7-7-7-7-7-7-|
b||-10-10-10-10-10-9-9-9-9-9-9-9-|
g||-9--9--9--9--9--9-9-9-9-9-9-9-|
d||-7--7--7--7--7--7-7-7-7-7-7-7-|
a||------------------------------|
e||------------------------------|
 ||
 ||(Gtr. 2)
e||-----------------------------------------------------------------------|
B||-----------------------------------------------------------------------|
G||-14-14-14-14-14-13-13-13-11-9-9-9--14-14-14-14-14-16-16-16-18-18-18-18-|
D||-----------------------------------------------------------------------|
A||-12-12-12-12-12-11-11-11-9--7-7-7--12-12-12-12-12-14-14-14-16-16-16-16-|
E||-----------------------------------------------------------------------|

   (Gtr. 1)
e||-7--7--7--7--7--7-7-7-7-7-7-7-|
b||-10-10-10-10-10-9-9-9-9-9-9-9-|
g||-9--9--9--9--9--9-9-9-9-9-9-9-|
d||-7--7--7--7--7--7-7-7-7-7-7-7-|
a||------------------------------|
e||------------------------------|
 ||
 ||(Gtr. 2)
e||-------------------------------------|
B||-------------------------------------|
G||-14-14-14-14-14-16-16-16-18-18-18-18-|
D||-------------------------------------|
A||-12-12-12-12-12-14-14-14-16-16-16-16-|
E||-------------------------------------|

   (Gtr. 1)
e||---------------------------------------------------------------|
b||---------------------------------------------------------------|
g||---------------------------------------------------------------|
d||-14-16-13-14-11-13-9-11-13-14-16-13-14-16-18-16-14-16-13-13-14-|
a||---------------------------------------------------------------|
e||---------------------------------------------------------------|

From this riff on Guitar 2 just strums a normal A chord

   (Gtr. 1)
e||------|
b||------|
g||--14--| Repeatedly
d||------|
a||------|
e||------|

   (Gtr. 2)
e||-----------------------|
b||-----------------------|
g||-------6-7---9-----6-7-| Repeatedly till end
d||-7-6-9-----7---9-7-----|
a||-0-0-0-----0-----0-----|
e||-----------------------|

* Lyrics *

You believe there's something else
To relieve your emptiness
And you dream about yourself
And you bleed and breathe the air
And it's on, and on, and on, and on, and on
I just kinda died for you
You just kinda stared at me
We will always have the chance
We can do this one more time

Hell yeah, I remember aurora
Hell yeah, I remember aurora
All this time
Hell yeah, I remember aurora

Take me now, we can spin the sun around
And the stars will all come out
Then we'll turn and come back down
Turn and come back down

You believe there's somewhere else
Where it's easier than this
And you see outside yourself
And you buy the hole you'll fill
And still it's on, and on, and on, and on, and on

Hell yeah, I remember aurora
Hell yeah, I remember aurora
All this time
Hell yeah, I remember aurora

Take me now, we can spin the sun around
And the stars will all come out
Then we'll turn and come back down
Turn and come back down

On and on, and on aurora wait for everyone
Wait 'til the last one's done
On and on, and on aurora wait for everyone
Wait 'til the last one's done

Take me now, we can spin the sun around
And the stars will all come out
Then we'll turn and come back down
Turn and come back down
Turn and come back down
Turn and come back down

On and on, and on, and on, and on, and on
And on, and on, and on, and on, and on
And on, and on, and on, and on, and on
And on, and on, and on, and on, and on
And on, and on, and on, and on, and on
Suggest correction
Give kudos to tab author, rate the tab!
1 2 3 4 5
comments
print report bad tab
guest
You may want to rate the tab now too:
select rating
Wanna post a correction for this tab? Suggest correction