Oops, an error
Loading. Please wait.
We have an official Back And Forth tab made by UG professional guitarists. Check out the tab »
×
5,915 views 1 this week
2 commentsread comments
1 2 3 4 5
x 7
add to favorites
×
Save as Personal and add changes to this tab that will be seen only by you. Learn more ›
×
You can save this tab as Personal to edit and correct it or add notes. All changes will be seen only by you. Learn more »
launch autoscroll
font size
0
reset
guitar tuner
edit
Autoscroll
slow
fast
+/-
esc
set tempo
stop
Author
-----------------------------------------------------------------------------
			     Back and Forth – Foo Fighters
-----------------------------------------------------------------------------

Tabbed By: Nelson
E-mail: njk1996@aol.com

Tuning: Standard
This is one of my favorite songs on Wasting Light, and being that I couldn’t find any 
bass tabs that sounded correct; I decided to make my own.  Please comment or E-mail me if 
anything is wrong, because I don’t think it’s 100% correct.  Thanks.

Intro:
G|-----------------|
D|-----------------|
A|-----2-3---------|
E|-1-2-----3-4-5---|

Verse 1:
G|-----------------|
D|-----------------|
A|-----------------|   X2
E|-5---------------|

G|-----------------|
D|-----------------|
A|-----2-3---------|
E|-1-2-----3-4-5---|

(Bass fully enters)
G|--------------------------------------------------------------------------|
D|--------------------------------------------------------------------------|
A|-------------------3-33333333333353-------------------5-5555555-----------|
E|-5-55555555555555------------------3-33333333333333-----------------------|

G|-----------------|
D|-----------------|
A|-----2-3---------|
E|-1-2-----3-4-5---|

G|--------------------------------------------------------------------------|
D|--------------------------------------------------------------------------|
A|-------------------3-33333333333353-------------------5-55555555555-------|
E|-5-55555555555555------------------3-33333333333333-----------------------|

Pre-Chorus: (Slides are optional)
G|----------------------------------|
D|----------------------------------|
A|----------------------------------| X2
E|-5-5/9\--4-4/8\--3-3/7\--4-4/8\---|

G|----------------------|
D|----------------------|
A|----------------------|
E|-11111111--33333333---|
Chorus: Not exactly sure if this is 100% correct, but it sounds right with the song.
G|------------------------------------------------------------------|
D|------------------------------------------------------------------|
A|--------7-88888-10-8-7--------7-88888-10-8-7---55555555-88888888--|
E|-8888888---------------8888888------------------------------------| X2

G|-----------------|
D|-----------------|
A|-----2-3---------|
E|-1-2-----3-4-5---|

Verse 2:
G|--------------------------------------------------------------------------|
D|--------------------------------------------------------------------------|
A|-------------------3-33333333333353-------------------5-5555555-----------|
E|-5-55555555555555------------------3-33333333333333-----------------------|

G|-----------------|
D|-----------------|
A|-----2-3---------|
E|-1-2-----3-4-5---|

G|--------------------------------------------------------------------------|
D|--------------------------------------------------------------------------|
A|-------------------3-33333333333353-------------------5-55555555555-------|
E|-5-55555555555555------------------3-33333333333333-----------------------|

Pre-Chorus:
G|----------------------------------|
D|----------------------------------|
A|----------------------------------| X2
E|-5-5/9\--4-4/8\--3-3/7\--4-4/8\---|

G|----------------------|
D|----------------------|
A|----------------------|
E|-11111111--33333333---|
Chorus:
G|------------------------------------------------------------------|
D|------------------------------------------------------------------|
A|--------7-88888-10-8-7--------7-88888-10-8-7---55555555-88888888--|
E|-8888888---------------8888888------------------------------------| X2

G|-----------------|
D|-----------------|
A|-----2-3---------|
E|-1-2-----3-4-5---|

Solo: (Verse Rhythm)

G|--------------------------------------------------------------------------|
D|--------------------------------------------------------------------------|
A|-------------------3-33333333333353-------------------5-5555555-----------|
E|-5-55555555555555------------------3-33333333333333-----------------------|


G|-----------------|
D|-----------------|
A|-----2-3---------|
E|-1-2-----3-4-5---|

G|--------------------------------------------------------------------------|
D|--------------------------------------------------------------------------|
A|-------------------3-33333333333353-------------------5-55555555555-------|
E|-5-55555555555555------------------3-33333333333333-----------------------|

(Pre-Chorus Rhythm)
G|----------------------------------|
D|----------------------------------|
A|----------------------------------| X4
E|-5-5/9\--4-4/8\--3-3/7\--4-4/8\---|

G|----------------------|
D|----------------------|
A|----------------------|
E|-11111111--33333333---|
Chorus:
G|------------------------------------------------------------------|
D|------------------------------------------------------------------|
A|--------7-88888-10-8-7--------7-88888-10-8-7---55555555-88888888--|
E|-8888888---------------8888888------------------------------------| X3

G|-----------------|
D|-----------------|
A|-----2-3---------|
E|-1-2-----3-4-5---|

Thanks for reading!
Suggest correction
Creating personal tab
Creating personal tab
You can edit any tab online and save it as your Personal.

You can edit, replace or remove any tab part or add personal notes – all changes will be seen only by you.

Personal tabs can be accessed anytime from any device, even offline.
Learn more »
comments
print report bad tab
2 comments total.
+1 reply
BETH_FISH 82 Jan 03, 2012 10:05 AM

it's perfect! thank you so much i've waited soooo long for this tab!!!!!!!!!:)

0 reply
Sparky22 346 May 24, 2013 01:04 PM

Looks good apart from the final note of the run every time should be a D.

G|-----------------|
D|-----------------|
A|-----2-3-----5---|
E|-1-2-----3-4-----|

guest
You may want to rate the tab now too:
select rating
Wanna post a correction for this tab? Suggest correction