Oops, an error
Loading. Please wait.
We have an official Best Of You tab made by UG professional guitarists. Check out the tab »
×
119,562 views 96 this week
15 commentsread comments
1 2 3 4 5
x 69
add to favorites
×
Save as Personal and add changes to this tab that will be seen only by you. Learn more ›
×
You can save this tab as Personal to edit and correct it or add notes. All changes will be seen only by you. Learn more »
save as personal
new!
launch autoscroll
font size
0
reset
guitar tuner
backing track
0:00
0:00
Autoscroll
slow
fast
+/-
esc
set tempo
stop
Tuning
E A D G
[Intro]

 "Are you gone and onto someone new?"
G|-----------------------------------------------------------------|
D|-----------------------------------------------------------------|
A|-4---------------2--------------0--------------------------------|
E|-----------------------------------------------------------------|


[Verse]

G|-----------------------------------------------------------------|
D|-----------------------------------------------------------------|
A|-------7-7-7-9-9-------7-7-7-9-9-------7-7-7-6-6-------7-7-7-6-6/|
E|-9-9-9-----------9-9-9-----------5-5-5-----------5-5-5-----------|

G|-----------------------------------------------------------------|
D|-----------------------------------------------------------------|
A|-------7-7-7-9-9-------7-7-7-9-9-------7-7-7-6-6-------7-7-7-6-6-|
E|-9-9-9-----------9-9-9-----------5-5-5-----------5-5-5-----------|

G|-----------------------------------------------------------------|
D|-----------------------------------------------------------------|
A|-------7-7-7-9-9-------7-7-7-9-9-------7-7-7-6-6-------7-7-7-----|
E|-7-7-7-----------7-7-7-----------5-5-5-----------5-5-5-------7-7-|

G|-----------------------------------------------------------------|
D|-----------------------------------------------------------------|
A|-------7-7-7-9-9-------7-7-7-9-9-------7-7-7-6-6-------7-7-7-6-6/|
E|-9-9-9-----------9-9-9-----------5-5-5-----------5-5-5-----------|

G|-----------------------------------------------------------------|
D|-----------------------------------------------------------------|
A|-------7-7-7-9-9-------7-7-7-9-9-------7-7-7-6-6-------7-7-7-6-6-|
E|-9-9-9-----------9-9-9-----------5-5-5-----------5-5-5-----------|

G|-----------------------------------------------------------------|
D|-----------------------------------------------------------------|
A|-------7-7-7-9-9-------7-7-7-9-9-------7-7-7-6-6-------7-7-7-6-6\|
E|-7-7-7-----------7-7-7-----------5-5-5-----------5-5-5-----------|


[Chorus 1]

G|-----------------------------------------------------------------|
D|-----------------------------------------------------------------|
A|-4-4-4-4-4-4-4-4-2-2-2-2-2-2-2---0-0-0-0-0-0-0-0-----------------|
E|-------------------------------0-----------------2-2-2-2-2-0-2-0-|

G|-----------------------------------------------------------------|
D|-----------------------------------------------------------------|
A|-4-4-4-4-4-4-4-4-2-2-2-2-2-2-2-2-0-0-0-0-0-0-0-0-----------------|
E|-------------------------------------------------2-2-2-0-2-2-0-2-|

G|-----------------------------------------------------------------|
D|-----------------------------------------------------------------|
A|-4-4-4-4-4-4-4-4-2-2-2-2-2-2-2-2-0-0-0-0-0-0-0-0-----------------|
E|-------------------------------------------------2-2-2-2-2-2-2-2-|

G|-----------------------------------------------------------------|
D|-----------------------------------------------------------------|
A|-4-4-4-4-4-4-4-4-2-2-2-2-2-2-2-2-0-0-0-0-0-0-0-0-----------------|
E|-------------------------------------------------2-2-2-2-2-2-2-2-|

[Guitar Solo]

G|-----------------------------------------------------------------|
D|-----------------------------------------------------------------|
A|-----------------------------------------------------------------|
E|-9-9-9-9-9-9-9-9-9-9-9-9-9-9-9-9-5-5-5-5-5-5-5-5-5-5-5-5-5-5-5-5-|
  ^     ^     ^   ^     ^     ^   ^     ^     ^   ^     ^     ^

G|-----------------------------------------------------------------|
D|-----------------------------------------------------------------|
A|-------------7---------------------------------------------------|
E|-9-9-9-9---9---0-9-9-9-9-9-9-9-9-5-5-5-4---4-4---2-2-2-0---0-0---|
  ^     ^     ^   ^     ^     ^   ^     ^         ^     ^
"OHHHHHHHHHHHHH OHHHHHHHHHHHHHH"
G-----------------------------------------------------------------|
D-----------------------------------------------------------------|
A-----------------------------------------------------------------|
E-5h7---7-7-7-5h7---7-7-7-5h7-7-7-5h7---7-7-7-5h7---7-7-7-5h7-7-7-|

G|-----------------------------------------------------------------|
D|-----------------------------------------------------------------|
A|-----------------------------------------------------------------|
E|---5---5-5-5---5---5-5-5---5-5-5---5---5-5-5---5---x---x---5-----|
    ^           ^           ^       ^           ^           ^
G-----------------------------------------------------------------|
D-----------------------------------------------------------------|
A-----------------------------------------------------------------|
E-5h7---7-7-7-5h7---7-7-7-5h7-7-7-5h7---7-7-7-5h7-x-x-x-x-x-7-----|
                                                            ^
G-----------------------------------------------------------------|
D-----------------------------------------------------------------|
A-----------------------------------------------------------------|
E---5---5-5-5---5---5-5-5---5-5-5---5---5-5-5---5---5-5-5---5-5-5-|
    ^           ^           ^       ^           ^           ^


[Chorus 2]

G|-----------------------------------------------------------------|
D|-----------------------------------------------------------------|
A|-4-4-4-4-4-4-4-4-2-2-2-2-2-2-2---0-0-0-0-0-0-0-0-----------------|
E|-------------------------------0-----------------2-2-2-2-2-0-2-0-|

G|-----------------------------------------------------------------|
D|-----------------------------------------------------------------|
A|-4-4-4-4-4-4-4-4-2-2-2-2-2-2-2-2-0-0-0-0-0-0-0-0-----------------|
E|-------------------------------------------------2-2-2-0-2-2-0-2-|

G|-----------------------------------------------------------------|
D|-----------------------------------------------------------------|
A|-4-4-4-4-4-4-4-4-6-6-6-6-6-6-6-6-7-7-7-7-7-7-7-7-9-9-9-9-9-9-9-7-|
E|-----------------------------------------------------------------|

G|-----------------------------------------------------------------|
D|-----------------------------------------------------------------|
A|-4-4-4-4-4-4-4-4-6-6-6-6-6-6-6-6-7-7-7-7-7-7-7-7-----------------|
E|-------------------------------------------------2-2-2-2-2-2-2-2-|
"I've got another confession my friend..."
G|-----------------------------------------------------------------|
D|-----------------------------------------------------------------|
A|-4---------------------------------------------------------------|
E|-----------------------------------------------------------------|

G|-----------------------------------------------------------------|
D|-----------------------------------------------------------------|
A|-----------------------------------------------------------------|
E|-----------------------------------------------------------------|
"Where you born to resist"
G|-----------------------------------------------------------------|
D|-----------------------------------------------------------------|
A|-2-2-2-2-2-2-2-2-2-2-2-2-2-2-2-2-0-0-0-0-0-0-0-0-0-0-0-0-0-0-0-0-|
E|-----------------------------------------------------------------|

G|-----------------------------------------------------------------|
D|-----------------------------------------------------------------|
A|-2-2-2-2-2-2-2-2-2-2-2-2-2-2-2-2-0-0-0-0-0-0-0-0-----------------|
E|-----------------------------------------------------------------|


[Chorus 3]

G|-----------------------------------------------------------------|
D|-----------------------------------------------------------------|
A|-4-4-4-4-4-4-4-4-2-2-2-2-2-2-2---0-0-0-0-0-0-0-0-----------------|
E|-------------------------------0-----------------2-2-2-2-2-0-2-0-|

G|-----------------------------------------------------------------|
D|---------------------4---4-2-1-----------------------4---4-2-1---|
A|-4-4-4-4-4-4-4-4-2-2---2-------2-0-0-0-0-0-0-0-0---------------2-|
E|-------------------------------------------------2-2---2---------|

G|-----------------------------------------------------------------|
D|---------------------------4-2-----------------------------------|
A|-4-4-4-4-4-4-4-4-2-2-0-2-4-----4-7-7-7-7-7-7-7-7-----------------|
E|-------------------------------------------------2-2-2-2-2-2-2-2-|

G|-----------------------------------------------------------------|
D|-----------------------------------------------------------------|
A|-4-4-4-4-4-4-4-4-6-6-6-6-6-6-6-6---------------------------------|
E|---------------------------------0-0-0-0-0-0-0-0-2-2-2-2-2-2-2-2-|


[Outro]

G|--------------------------------------------------------|
D|--------------------------------------------------------|
A|--------------------------------------------------------|
E|-9\-9---9-9\-9-----9\-9---9-9-9\-9---9-9\-9----9\-9-----|

G|--------------------------------|
D|----11-9------------------------|
A|---------11-9-------------------|
E|-9\-----------11-11-10-9\--9\---|


************************************

| x  Dead note
| h  Hammer-on
| \  Slide down

************************************
Suggest correction
comments
print report bad tab
15 comments total. Showing first comments.
+1 reply
saturns_bassman 789 Jun 13, 2005 08:00 PM

what the hell does ^ mean

+1 reply
saturns_bassman 789 Jul 09, 2005 08:00 PM

dude this is a great ***ing tab man!!!

+1 reply
VRANAC 10 Jan 23, 2006 08:26 AM

think this deserves 5

guest
Wanna post a correction for this tab? Suggest correction