Oops, an error
Loading. Please wait.
We have an official Best Of You tab made by UG professional guitarists. Check out the tab »
×

Best Of You tab

version 3
version 3

Whole song

Video

  • This is the acoustic version based on a live perfo... Show more
106,635 views 177 this week
11 commentsread comments
1 2 3 4 5
x 39
add to favorites
×
Save as Personal and add changes to this tab that will be seen only by you. Learn more ›
×
You can save this tab as Personal to edit and correct it or add notes. All changes will be seen only by you. Learn more »
launch autoscroll
font size
0
reset
how to read this tab
guitar tuner
backing track
0:00
0:00
edit
Autoscroll
slow
fast
+/-
esc
set tempo
stop
Author
Song: Best Of You
Artist: Foo Fighters
Album: In Your Honor
Genre: Rock


[Intro/Verse]

Guitar 1
e|---------------------------------|-0-0-0-0-0-0-0-0-0-0-0-0-0-0-0-0-|   
B|-0-0-0-0-0-0-0-0-0-0-0-0-0-0-0-0-|-0-0-0-0-0-0-0-0-0-0-0-0-0-0-0-0-|   
G|-4-4-4-4-4-4-4-4-4-4-4-4-4-4-4-4-|-4-4-4-4-4-4-4-4-4-4-4-4-4-4-4-4-| 
D|-2-2-2-2-2-2-2-2-2-2-2-2-2-2-2-2-|-2-2-2-2-2-2-2-2-2-2-2-2-2-2-2-2-|      
A|-4-4-4-4-4-4-4-4-4-4-4-4-4-4-4-4-|-0-0-0-0-0-0-0-0-0-0-0-0-0-0-0-0-|     
E|---------------------------------|---------------------------------|(x2) 

e|---------------------------------|-0-0-0-0-0-0-0-0-0-0-0-0-0-0-0-0-|
B|-0-0-0-0-0-0-0-0-0-0-0-0-0-0-0-0-|-0-0-0-0-0-0-0-0-0-0-0-0-0-0-0-0-|
G|-4-4-4-4-4-4-4-4-4-4-4-4-4-4-4-4-|-4-4-4-4-4-4-4-4-4-4-4-4-4-4-4-4-|
D|-4-4-4-4-4-4-4-4-4-4-4-4-4-4-4-4-|-2-2-2-2-2-2-2-2-2-2-2-2-2-2-2-2-|
A|-2-2-2-2-2-2-2-2-2-2-2-2-2-2-2-2-|-0-0-0-0-0-0-0-0-0-0-0-0-0-0-0-0-|
E|---------------------------------|---------------------------------|

Guitar 2
e|-0-0-0-0-0-0-0-0-0-0-0-0-0-0-0-0-|-0-0-0-0-0-0-0-0-0-0-0/0--0--0---|
B|-0-0-0-0-0-0-0-0-0-0-0-0-0-0-0-0-|-0-0-0-0-0-0-0-0-0-0-0/0--0--0---|
G|-6-6-6-6-6-6-6-6-6-6-6-6-6-6-6-6-|-9-9-9-9-9-9-9-9-9-9-9/11-11-11--|
D|-6-6-6-6-6-6-6-6-6-6-6-6-6-6-6-6-|-9-9-9-9-9-9-9-9-9-9-9/11-11-11--|
A|---------------------------------|---------------------------------|
E|---------------------------------|---------------------------------|(x2)

e|--0-0-0-0-0-0-0-0-0-0-0-0-0-0-0-0-0-0-0-0-0-0-0-0-0-0-0-0-0-0-0-0--|
B|--0-0-0-0-0-0-0-0-0-0-0-0-0-0-0-0-0-0-0-0-0-0-0-0-0-0-0-0-0-0-0-0--|
G|--8-8-8-8-8-8-8-8-8-8/6/4-4-4-4-4-4-4-4-4-4/6/9-9-9-9-9-9-9-9-9-9--|
D|--9-9-9-9-9-9-9-9-9-9/6/4-4-4-4-4-4-4-4-4-4/6/9-9-9-9-9-9-9-9-9-9--|
A|-------------------------------------------------------------------|
E|-------------------------------------------------------------------|


[Chorus]

Guitar 1 (x3)  (Soft)
e|-0-0-0-0-0-0-0-0-|-0-0-0-0-0-0-0-0-|-0-0-0-0-0-0-0-0-|-0-0-0-0-0-0-0-0-|
B|-0-0-0-0-0-0-0-0-|-0-0-0-0-0-0-0-0-|-0-0-0-0-0-0-0-0-|-0-0-0-0-0-0-0-0-|
G|-4-4-4-4-4-4-4-4-|-4-4-4-4-4-4-4-4-|-4-4-4-4-4-4-4-4-|-4-4-4-4-4-4-4-4-|
D|-2-2-2-2-2-2-2-2-|-1-1-1-1-1-1-1-1-|-2-2-2-2-2-2-2-2-|-2-2-2-2-2-2-2-2-|
A|-4-4-4-4-4-4-4-4-|-----------------|-0-0-0-0-0-0-0-0-|-0-0-0-0-0-0-0-0-|
E|-----------------|-0-0-0-0-0-0-0-0-|-----------------|-----------------|


[Verse]

Guitar 1
e|---------------------------------|-0-0-0-0-0-0-0-0-0-0-0-0-0-0-0-0-|   
B|-0-0-0-0-0-0-0-0-0-0-0-0-0-0-0-0-|-0-0-0-0-0-0-0-0-0-0-0-0-0-0-0-0-|   
G|-4-4-4-4-4-4-4-4-4-4-4-4-4-4-4-4-|-4-4-4-4-4-4-4-4-4-4-4-4-4-4-4-4-| 
D|-2-2-2-2-2-2-2-2-2-2-2-2-2-2-2-2-|-2-2-2-2-2-2-2-2-2-2-2-2-2-2-2-2-|      
A|-4-4-4-4-4-4-4-4-4-4-4-4-4-4-4-4-|-0-0-0-0-0-0-0-0-0-0-0-0-0-0-0-0-|     
E|---------------------------------|---------------------------------|(x2)

e|---------------------------------|-0-0-0-0-0-0-0-0-0-0-0-0-0-0-0-0-|
B|-0-0-0-0-0-0-0-0-0-0-0-0-0-0-0-0-|-0-0-0-0-0-0-0-0-0-0-0-0-0-0-0-0-|
G|-4-4-4-4-4-4-4-4-4-4-4-4-4-4-4-4-|-4-4-4-4-4-4-4-4-4-4-4-4-4-4-4-4-|
D|-4-4-4-4-4-4-4-4-4-4-4-4-4-4-4-4-|-2-2-2-2-2-2-2-2-2-2-2-2-2-2-2-2-|
A|-2-2-2-2-2-2-2-2-2-2-2-2-2-2-2-2-|-0-0-0-0-0-0-0-0-0-0-0-0-0-0-0-0-|
E|---------------------------------|---------------------------------|

Guitar 2
e|-0-0-0-0-0-0-0-0-0-0-0-0-0-0-0-0-|-0-0-0-0-0-0-0-0-0-0-0/0--0--0---|
B|-0-0-0-0-0-0-0-0-0-0-0-0-0-0-0-0-|-0-0-0-0-0-0-0-0-0-0-0/0--0--0---|
G|-6-6-6-6-6-6-6-6-6-6-6-6-6-6-6-6-|-9-9-9-9-9-9-9-9-9-9-9/11-11-11--|
D|-6-6-6-6-6-6-6-6-6-6-6-6-6-6-6-6-|-9-9-9-9-9-9-9-9-9-9-9/11-11-11--|
A|---------------------------------|---------------------------------|
E|---------------------------------|---------------------------------|(x2)

e|--0-0-0-0-0-0-0-0-0-0-0-0-0-0-0-0-0-0-0-0-0-0-0-0-0-0-0-0-0-0-0-0--|
B|--0-0-0-0-0-0-0-0-0-0-0-0-0-0-0-0-0-0-0-0-0-0-0-0-0-0-0-0-0-0-0-0--|
G|--8-8-8-8-8-8-8-8-8-8/6/4-4-4-4-4-4-4-4-4-4/6/9-9-9-9-9-9-9-9-9-9--|
D|--9-9-9-9-9-9-9-9-9-9/6/4-4-4-4-4-4-4-4-4-4/6/9-9-9-9-9-9-9-9-9-9--|
A|-------------------------------------------------------------------|
E|-------------------------------------------------------------------|

Guitar 1
e|---------------------------------|-0-0-0-0-0-0-0-0-0-0-0-0-0-0-0-0-| 
B|-0-0-0-0-0-0-0-0-0-0-0-0-0-0-0-0-|-0-0-0-0-0-0-0-0-0-0-0-0-0-0-0-0-|  
G|-4-4-4-4-4-4-4-4-4-4-4-4-4-4-4-4-|-4-4-4-4-4-4-4-4-4-4-4-4-4-4-4-4-|
D|-2-2-2-2-2-2-2-2-2-2-2-2-2-2-2-2-|-2-2-2-2-2-2-2-2-2-2-2-2-2-2-2-2-|     
A|-4-4-4-4-4-4-4-4-4-4-4-4-4-4-4-4-|-0-0-0-0-0-0-0-0-0-0-0-0-0-0-0-0-|(x2)


e|---------------------------------|-0-0-0-0-0-0-0-0-0-0-0-0-0-0-0-0-|
B|-0-0-0-0-0-0-0-0-0-0-0-0-0-0-0-0-|-0-0-0-0-0-0-0-0-0-0-0-0-0-0-0-0-|
G|-4-4-4-4-4-4-4-4-4-4-4-4-4-4-4-4-|-4-4-4-4-4-4-4-4-4-4-4-4-4-4-4-4-|
D|-4-4-4-4-4-4-4-4-4-4-4-4-4-4-4-4-|-2-2-2-2-2-2-2-2-2-2-2-2-2-2-2-2-|
A|-2-2-2-2-2-2-2-2-2-2-2-2-2-2-2-2-|-0-0-0-0-0-0-0-0-0-0-0-0-0-0-0-0-|
E|---------------------------------|---------------------------------|

Guitar 2
e|-0-0-0-0-0-0-0-0-0-0-0-0-0-0-0-0-|-0-0-0-0-0-0-0-0-0-0-0/0--0--0---|
B|-0-0-0-0-0-0-0-0-0-0-0-0-0-0-0-0-|-0-0-0-0-0-0-0-0-0-0-0/0--0--0---|
G|-6-6-6-6-6-6-6-6-6-6-6-6-6-6-6-6-|-9-9-9-9-9-9-9-9-9-9-9/11-11-11--|
D|-6-6-6-6-6-6-6-6-6-6-6-6-6-6-6-6-|-9-9-9-9-9-9-9-9-9-9-9/11-11-11--|
A|---------------------------------|---------------------------------|
E|---------------------------------|---------------------------------|(x2)

e|--0-0-0-0-0-0-0-0-0-0-0-0-0-0-0-0-0-0-0-0-0-0-0-0-0-0-0-0-0-0-0-0--|
B|--0-0-0-0-0-0-0-0-0-0-0-0-0-0-0-0-0-0-0-0-0-0-0-0-0-0-0-0-0-0-0-0--|
G|--8-8-8-8-8-8-8-8-8-8/6/4-4-4-4-4-4-4-4-4-4/6/9-9-9-9-9-9-9-9-9-9--|
D|--9-9-9-9-9-9-9-9-9-9/6/4-4-4-4-4-4-4-4-4-4/6/9-9-9-9-9-9-9-9-9-9--|
A|-------------------------------------------------------------------|
E|-------------------------------------------------------------------|


[Chorus]

Guitar 1 (x4) (Heavy)
e|-0-0-0-0-0-0-0-0-|-0-0-0-0-0-0-0-0-|-0-0-0-0-0-0-0-0-|-0-0-0-0-0-0-0-0-|
B|-0-0-0-0-0-0-0-0-|-0-0-0-0-0-0-0-0-|-0-0-0-0-0-0-0-0-|-0-0-0-0-0-0-0-0-|
G|-4-4-4-4-4-4-4-4-|-4-4-4-4-4-4-4-4-|-4-4-4-4-4-4-4-4-|-3-3-3-3-3-3-3-3-|
D|-2-2-2-2-2-2-2-2-|-1-1-1-1-1-1-1-1-|-2-2-2-2-2-2-2-2-|-4-4-4-4-4-4-4-4-|
A|-4-4-4-4-4-4-4-4-|-----------------|-0-0-0-0-0-0-0-0-|-4-4-4-4-4-4-4-4-|
E|-----------------|-0-0-0-0-0-0-0-0-|-----------------|-2-2-2-2-2-2-2-2-|

Guitar 2 
e|---------------|---------------|---------------|----------------------|
B|---------------|---------------|---------------|----------------------|
G|-6-6-6-6-6-6-6-|-8-8-8-8-8-8-8-|-9-9-9-9-9-9-9-|-11-11-11-11-11-11-11-|
D|-x-x-x-x-x-x-x-|-x-x-x-x-x-x-x-|-x-x-x-x-x-x-x-|-x--x--x--x--x--x--x--|
A|-4-4-4-4-4-4-4-|-6-6-6-6-6-6-6-|-7-7-7-7-7-7-7-|-9--9--9--9--9--9--9--|
E|---------------|---------------|---------------|----------------------|(x2)

e|----------------|----------------|----------------|----------------|
B|----------------|----------------|----------------|----------------|
G|-13-13-13-13-13-|-16-16-16-16-16-|-18-18-18-18-18-|-15-15-15-15-15-|
D|-x--x--x--x--x--|-x--x--x--x--x--|-x--x--x--x--x--|-x--x--x--x--x--|
A|-11-11-11-11-11-|-14-14-14-14-14-|-16-16-16-16-16-|-13-13-13-13-13-|
E|----------------|----------------|----------------|----------------|(x2)


[Interlude]

Guitar 1
e|-----|
B|-----|
G|--13-| (Played behind Guitar 2 the whole time)
D|--x--|
A|--11-|
E|-----|

Guitar 2
e|------------------------------------------------|
B|------------------------------------------------|
G|--13-13-13-13-13-13-13-13-13-13-13-13-16-13-16--|
D|--x--x--x--x--x--x--x--x--x--x--x--x--x--x--x---|
A|--11-11-11-11-11-11-11-11-11-11-11-11-14-11-14--|
E|------------------------------------------------|
                                                                       
e|---------------------------------------------------|
B|---------------------------------------------------|
G|--18-18-18-18-16-16-16-16-16-16-16-16-16-16-16-16--|
D|--x--x--x--x--x--x--x--x--x--x--x--x--x--x--x--x---|
A|--16-16-16-16-14-14-14-14-14-14-14-14-14-14-14-14--|
E|---------------------------------------------------|

e|------------------------------------------------|
B|------------------------------------------------|
G|--13-13-13-13-13-13-13-13-13-13-13-13-16-13-16--|
D|--x--x--x--x--x--x--x--x--x--x--x--x--x--x--x---|
A|--11-11-11-11-11-11-11-11-11-11-11-11-14-11-14--|
E|------------------------------------------------|
                                                                      
e|---------------------------------------------------|
B|---------------------------------------------------|
G|--18-18-18-18-18-18-18-18-18-18-18-18-18-18-18-18--|
D|--x--x--x--x--x--x--x--x--x--x--x--x--x--x--x--x---|
A|--16-16-16-16-16-16-16-16-16-16-16-16-16-16-16-16--|
E|---------------------------------------------------|


[Interlude 2]

Guitar 1
e|-----|
B|-----|
G|--13-| (Played behind Guitar 2 the whole time)
D|--x--|
A|--11-|
E|-----|

Guitar 2
e|------------------------------|----------x-x-x-|-----------|
B|------------------------------|----------x-x-x-|-----------|
G|--11-11-9-8-|13-13-11-9-----9-|11-11-9-8-x-x-x-|13-13-11-9-|
D|--x--x--x-x-|x--x--x--x-----x-|x--x--x-x-x-x-x-|x--x--x--x-|
A|--9--9--7-6-|11-11-9--7-7-7-7-|9--9--7-6-x-x-x-|11-13-9--7-|
E|------------|-----------0-0---|----------x-x-x-|-----------|


[Chorus]

Guitar 1 (x4) (Heavy)
e|-0-0-0-0-0-0-0-0-|-0-0-0-0-0-0-0-0-|-0-0-0-0-0-0-0-0-|-0-0-0-0-0-0-0-0-|
B|-0-0-0-0-0-0-0-0-|-0-0-0-0-0-0-0-0-|-0-0-0-0-0-0-0-0-|-0-0-0-0-0-0-0-0-|
G|-4-4-4-4-4-4-4-4-|-4-4-4-4-4-4-4-4-|-4-4-4-4-4-4-4-4-|-3-3-3-3-3-3-3-3-|
D|-2-2-2-2-2-2-2-2-|-1-1-1-1-1-1-1-1-|-2-2-2-2-2-2-2-2-|-4-4-4-4-4-4-4-4-|
A|-4-4-4-4-4-4-4-4-|-----------------|-0-0-0-0-0-0-0-0-|-4-4-4-4-4-4-4-4-|
E|-----------------|-0-0-0-0-0-0-0-0-|-----------------|-2-2-2-2-2-2-2-2-|

Guitar 2 
e|---------------|---------------|---------------|----------------------|
B|---------------|---------------|---------------|----------------------|
G|-6-6-6-6-6-6-6-|-8-8-8-8-8-8-8-|-9-9-9-9-9-9-9-|-11-11-11-11-11-11-11-|
D|-x-x-x-x-x-x-x-|-x-x-x-x-x-x-x-|-x-x-x-x-x-x-x-|-x--x--x--x--x--x--x--|
A|-4-4-4-4-4-4-4-|-6-6-6-6-6-6-6-|-7-7-7-7-7-7-7-|-9--9--9--9--9--9--9--|
E|---------------|---------------|---------------|----------------------|(x2)

e|----------------|----------------|----------------|----------------|
B|----------------|----------------|----------------|----------------|
G|-13-13-13-13-13-|-16-16-16-16-16-|-18-18-18-18-18-|-15-15-15-15-15-|
D|-x--x--x--x--x--|-x--x--x--x--x--|-x--x--x--x--x--|-x--x--x--x--x--|
A|-11-11-11-11-11-|-14-14-14-14-14-|-16-16-16-16-16-|-13-13-13-13-13-|
E|----------------|----------------|----------------|----------------|(x2)

Guitar 1
e|---------------------------------|-0---0-0--0-0-0-0---0-0--0-0-0-0-|   
B|-0---0-0--0-0-0-0---0-0--0-0-0-2-|-0---0-0--0-0-0-0---0-0--0-0-0-0-|   
G|-4---4-4--4-4-4-4---4-4--4-4-4-4-|-4---4-4--4-4-4-4---4-4--4-4-4-4-|
D|-2---2-2--2-2-2-2---2-2--2-2-2-2-|-2---2-2--2-2-2-2---2-2--2-2-2-2-| 
A|-4---4-4--4-4-4-4---4-4--4-4-4-4-|-0---0-0--0-0-0-0---0-0--0-0-0-0-|
E|---------------------------------|---------------------------------|(x2) 

Guitar 1
e|-0-------------------------------|-0-------------------------------|
B|-0-------------------------------|-0-------------------------------|
G|-4-------------------------------|-4-------------------------------|
D|-4-------------------------------|-2-------------------------------|
A|-2-------------------------------|-0-------------------------------|
E|---------------------------------|---------------------------------|(x2)

Guitar 2
e|---------------------------------|-0-0-0-0-0-0-0-0-0-0-0-0-0-0-0-0-|
B|-0-0-0-0-0-0-0-0-0-0-0-0-0-0-0-0-|-0-0-0-0-0-0-0-0-0-0-0-0-0-0-0-0-|
G|-4-4-4-4-4-4-4-4-4-4-4-4-4-4-4-4-|-4-4-4-4-4-4-4-4-4-4-4-4-4-4-4-4-|
D|-4-4-4-4-4-4-4-4-4-4-4-4-4-4-4-4-|-2-2-2-2-2-2-2-2-2-2-2-2-2-2-2-2-|
A|-2-2-2-2-2-2-2-2-2-2-2-2-2-2-2-2-|-0-0-0-0-0-0-0-0-0-0-0-0-0-0-0-0-|
E|---------------------------------|---------------------------------|(x2)


[Chorus]

Guitar 1 (x4) (Heavy)
e|-0-0-0-0-0-0-0-0-|-0-0-0-0-0-0-0-0-|-0-0-0-0-0-0-0-0-|-0-0-0-0-0-0-0-0-|
B|-0-0-0-0-0-0-0-0-|-0-0-0-0-0-0-0-0-|-0-0-0-0-0-0-0-0-|-0-0-0-0-0-0-0-0-|
G|-4-4-4-4-4-4-4-4-|-4-4-4-4-4-4-4-4-|-4-4-4-4-4-4-4-4-|-3-3-3-3-3-3-3-3-|
D|-2-2-2-2-2-2-2-2-|-1-1-1-1-1-1-1-1-|-2-2-2-2-2-2-2-2-|-4-4-4-4-4-4-4-4-|
A|-4-4-4-4-4-4-4-4-|-----------------|-0-0-0-0-0-0-0-0-|-4-4-4-4-4-4-4-4-|
E|-----------------|-0-0-0-0-0-0-0-0-|-----------------|-2-2-2-2-2-2-2-2-|

Guitar 2 
e|---------------|---------------|---------------|----------------------|
B|---------------|---------------|---------------|----------------------|
G|-6-6-6-6-6-6-6-|-8-8-8-8-8-8-8-|-9-9-9-9-9-9-9-|-11-11-11-11-11-11-11-|
D|-x-x-x-x-x-x-x-|-x-x-x-x-x-x-x-|-x-x-x-x-x-x-x-|-x--x--x--x--x--x--x--|
A|-4-4-4-4-4-4-4-|-6-6-6-6-6-6-6-|-7-7-7-7-7-7-7-|-9--9--9--9--9--9--9--|
E|---------------|---------------|---------------|----------------------|(x2)

e|----------------|----------------|----------------|----------------|
B|----------------|----------------|----------------|----------------|
G|-13-13-13-13-13-|-16-16-16-16-16-|-18-18-18-18-18-|-15-15-15-15-15-|
D|-x--x--x--x--x--|-x--x--x--x--x--|-x--x--x--x--x--|-x--x--x--x--x--|
A|-11-11-11-11-11-|-14-14-14-14-14-|-16-16-16-16-16-|-13-13-13-13-13-|
E|----------------|----------------|----------------|----------------|(x2)


[Outro]

Both Guitars
e|---0-0----x-x-x--|----0-0----x-x-x---|        
B|---0-0----x-x-x--|----0-0----x-x-x---|        
G|---4-4----x-x-x--|----4-4----x-x-x---|
D|---2-2----x-x-x--|----2-2----x-x-x---|
A|---4-4----x-x-x--|----4-4----x-x-x---|
E|----------x-x-x--|-----------x-x-x---|



************************************

| /  Slide up
| x  Dead note 

************************************

            
            
Suggest correction
Creating personal tab
Creating personal tab
You can edit any tab online and save it as your Personal.

You can edit, replace or remove any tab part or add personal notes – all changes will be seen only by you.

Personal tabs can be accessed anytime from any device, even offline.
Learn more »
comments
print report bad tab
11 comments total. Showing first comments.
-1 reply
Cone 21 30 Jul 20, 2005 08:00 PM

this tab looks alot like the fftabs.com version just a tiny bit revised

0 reply
STERIOGRAM134 50 Oct 06, 2005 01:53 PM

its ok... no offense i think the one by boot is a lil bit better but this one is good.

0 reply
Boot 171 Oct 10, 2005 05:34 AM

This one is very good. Well worth 5 stars

guest
You may want to rate the tab now too:
select rating
Wanna post a correction for this tab? Suggest correction