Oops, an error
Loading. Please wait.
We have an official Bridge Burning tab made by UG professional guitarists. Check out the tab »
×
204 views 3 this week
no commentswrite comment
1 2 3 4 5
3 more votes to show rating
add to favorites
×
Save as Personal and add changes to this tab that will be seen only by you. Learn more ›
×
You can save this tab as Personal to edit and correct it or add notes. All changes will be seen only by you. Learn more »
launch autoscroll
font size
0
reset
guitar tuner
edit
Autoscroll
slow
fast
+/-
esc
set tempo
stop
Author
Difficulty
-----------------------------------------------------------------------------
                             Bridge Burning - Foo Fighters
-----------------------------------------------------------------------------

Tabbed by: Country Bass
E-mail: aaron.white8@education.nsw.gov.au

Track: 1
Album: Wasting Light


Great new song from Foo Fighters latest album Wasting Light, brilliant album, brilliant song


Tuning: Standard

Intro

Bass comes in at 0:23 when the Taylor hits the cymbals and starts rolling on the snare 

G|--------------------------------|
D|--------------------------------|
A|--5-7-5-7-5-7-5-7-5-7-4--5-7-4--| x4
E|--------------------------------|

"These are my famous last words..."

G|-------------------------------------------|
D|-------------------------------------------|
A|--------\-3-3-3-3---------5-5-5-5----------| x2
E|------------------3-3-3-3---------5-5-5-5--|

Verse 1

G|--------------------------------------------------------|
D|--------------------------------------------------------|
A|--7-7--7-6-6--6-5-5--5-4-4--4---------------------------| x6
E|------------------------------2-2--2-3-3--3-4-4--4-5-5--|

G|------------------------------------------------------------------|
D|------------------------------------------------------------------|
A|--7-7-7-7-6-6-6-6-5-5-5-5-4-4-4-4---------------------------------| x2
E|----------------------------------5-5-5-5-4-4-4-4-3-3-3-3-2-2-2-2-|

Pre-Chorus

G|------------------------------------------------------------------------|
D|------------------------------------------------------------------------|
A|--3-3-3-3-3-3-3-3-----------------3-3-3-3-3-3-3-3-----------------------|
E|------------------5-5-5-5-5-5-5-5-----------------5-5-5-5-555555555555--|

Chorus

G|-------------------------------------------------------------------|
D|-------------------------------------------------------------------|
A|----------------------------------5-5-5-5-5-5-5-5-5-5-5-5-5-5-5-5--|
E|--7-7-7-7-7-7-7-7-7-7-7-7-7-7-7-7----------------------------------|

G|--------------------------------------------|
D|--------------------------------------------|
A|---------3--3-3-3-3-3---------3--3-3-3-3-3--| 
E|--3--3-3---------------3--3-3---------------|

G|-------------------------------------------------------------------|
D|-------------------------------------------------------------------|
A|----------------------------------5-5-5-5-5-5-5-5-5-5-5-5-5-5-5-5--|
E|--7-7-7-7-7-7-7-7-7-7-7-7-7-7-7-7----------------------------------|

G|--------------------------------------------|
D|--------------------------------------------|
A|---------3--3-3-3-3-3---------3--3-3-3-3-3--| x3 
E|--3--3-3---------------3--3-3---------------|

G|-----------------------------------|
D|-----------------------------------|
A|--3-3-3-3-3-3-3-3-3-3-3-3-3-3-3-3--|
E|-----------------------------------|

Pre-Verse

G|---------------------------------|
D|---------------------------------|
A|-----------4---4-----------4---4-|
E|---------------------------------|

Verse 2

G|--------------------------------------------------------|
D|--------------------------------------------------------|
A|--7-7--7-6-6--6-5-5--5-4-4--4---------------------------| x2
E|------------------------------2-2--2-3-3--3-4-4--4-5-5--|

G|------------------------------------------------------------------|
D|------------------------------------------------------------------|
A|--7-7-7-7-6-6-6-6-5-5-5-5-4-4-4-4---------------------------------| x2
E|----------------------------------5-5-5-5-4-4-4-4-3-3-3-3-2-2-2-2-|

Bridge

G|-----------------------------------------------------------------------------------|
D|-----------------------------------------------------------------------------------|
A|--9-9-9-9-9-9-9-9-7-7-7-7-7-7-7-7-----------------5-5-5-5-5-5-5-5-6-6-6-6-6-6-6-6--| x2
E|----------------------------------3-3-3-3-3-3-3-3----------------------------------|

G|---------------------|
D|---------------------|
A|-----------3/---3/---|
E|---------------------|

Final Chorus


G|-------------------------------------------------------------------|
D|-------------------------------------------------------------------|
A|----------------------------------5-5-5-5-5-5-5-5-5-5-5-5-5-5-5-5--|
E|--7-7-7-7-7-7-7-7-7-7-7-7-7-7-7-7----------------------------------|

G|---------------------------------------------------------|
D|---------------------------------------------------------|
A|-------------5--5-5-5-5-5-5----------5--5-5-5-5-5-5-5-5--| 
E|--5--5-5-5-5-----------------7--7-7----------------------|

G|-------------------------------------------------------------------|
D|-------------------------------------------------------------------|
A|----------------------------------5-5-5-5-5-5-5-5-5-5-5-5-5-5-5-5--|
E|--7-7-7-7-7-7-7-7-7-7-7-7-7-7-7-7----------------------------------|

G|--------------------------|
D|--------------------------|
A|----------5--5-5-5-5-5-5--| x2
E|--5--5-5------------------|

Outro - Part 1

G|-------------------------------------------------------------------|
D|-------------------------------------------------------------------|
A|----------------------------------5-5-5-5-5-5-5-5-5-5-5-5-5-5-5-5--|
E|--7-7-7-7-7-7-7-7-7-7-7-7-7-7-7-7----------------------------------|

G|------------------------------------|
D|------------------------------------|
A|-----------------5--5-7-5-6-5-7-5-6-| x2
E|--5--5-6-5-6-5-6--------------------|

Outro Part 2

G|------------------------------------|
D|------------------------------------|
A|-----------------5--5-7-5-6-5-7-5-6-| 
E|--5--5-6-5-6-5-6--------------------|

G|-----------------------------------|
D|-----------------------------------|
A|--3-3-3-3-3-3-3-3-3-3-3-3-3-3-3-3--|
E|-----------------------------------|

G|---------------------------------|
D|---------------------------------|
A|-----------4---4-----------4---4-|
E|---------------------------------|


Playing Order

Intro
Verse 1
Verse 2
Pre-Chorus
Chorus
Pre-Verse
Verse 2
Pre-Chorus
Chorus
Bridge
Final Chorus
Outro Part 1 x3
Outro Part 2


| /  slide up
| \  slide down
| h  hammer-on
| p  pull-off
| ~  vibrato
| +  harmonic
| x  Mute note
=============================================================================

            
            
Suggest correction
Creating personal tab
Creating personal tab
You can edit any tab online and save it as your Personal.

You can edit, replace or remove any tab part or add personal notes – all changes will be seen only by you.

Personal tabs can be accessed anytime from any device, even offline.
Learn more »
Give kudos to tab author, rate the tab!
1 2 3 4 5
comments
print report bad tab
guest
You may want to rate the tab now too:
select rating
Wanna post a correction for this tab? Suggest correction