Oops, an error
Loading. Please wait.

But Honestly chords

version 2
version 2

Whole song

Interactive

81,366 views 54 this week
13 commentsread comments
1 2 3 4 5
x 37
add to favorites
×
Save as Personal and add changes to this tab that will be seen only by you. Learn more ›
×
You can save this tab as Personal to edit and correct it or add notes. All changes will be seen only by you. Learn more »
launch autoscroll
font size
0
reset
transpose
0
reset
display chords
guitar tuner
edit
Autoscroll
slow
fast
+/-
esc
set tempo
stop
Author
Difficulty
Strumming
There is no strumming pattern for this song yet. and get +5 IQ
But Honestly
Foo Fighters


Tuned Standard

[Intro]

E B | A
E B | A


[Verse 1]

E         B                A
Where you off to with that head of yours
E         B                   A
Is there somewhere you should be
E        B               A
Was it something that I said the time I held you down
     E                 B              A--
And told you it's not you, it's only me, maybe


[Chorus 1]

      C#m       E       F#
Don't take what I don't mean
(Give me back my piece of mind)
      C#m      E       F#
Don't say what I don't mean
(Give me back my precious time)
   C#m        E       F#
No way you'll silence me
       E
You'll see


[Verse 2]

What you up to now your mirrors gone
Is there someone you should be
Did you think I was just fooling 'round with you
But honestly
But honestly
But honestly


[Chorus 2]

      C#m       E       F#
Don't take what I don't mean
(Give me back my piece of mind)
      C#m      E       F#
Don't say what I don't mean
(Give me back my precious time)
   C#m        E       F#
No way you'll silence me
       E
You'll see


[Bridge]

B                     C#m
Enter not I thank the stars
                    C
As I count my lucky scars
                            E
For everything you've given me
B                           C#m
And all the words I gave to you
                               C--
Something borrowed something blue

If you want them back


[Outro] (4x)

            E
I'll give it to you
         D
Give it to you
         C
Give it to you
         A
Give it to you


[Solo](Play till fade out):

E D C A

I don't want one thing that I gave to you (8x)


====================================================


[Verse]

  E       B         A
e-0-------0-------|-0-------4-------|
B-0-------0-------|-0-------0-------|
G-1-------8-------|-2-------2-------|
D-2-------9-------|-2-------2-------|
A-2-------9-------|-0-------0-------|
E-0-------7-------|-----------------|


[Chorus]

  C#m     E                 F#
e-4-------0-------|--------(0)------|
B-5-------0-------|-2-------2-------|
G-6-------1-------|-3-------3-------|
D-6-------2-------|-2-------4-------|
A-4-------2-------|-x-------4-------|
E---------0-------|-2-------2-------|


[Bridge]

  B       C#m       C       E
e-0-------0-------|-0-------0-------|
B-0-------0-------|-0-------0-------|
G-8-------9-------|-9-------1-------|
D-9-------11------|-10------2-------|
A-9-------11------|-10------2-------|
E-7-------9-------|-8-------0-------|


[Outro]

  E       D         C       A
e-0-------0-------|-0-------0-------|
B-0-------0-------|-0-------0-------|
G-9-------7-------|-5-------2-------|
D-9-------7-------|-5-------2-------|
A-7-------5-------|-3-------0-------|
E-0---------------|-----------------|


====================================================

Enjoy!
Suggest correction
Creating personal tab
Creating personal tab
You can edit any tab online and save it as your Personal.

You can edit, replace or remove any tab part or add personal notes – all changes will be seen only by you.

Personal tabs can be accessed anytime from any device, even offline.
Learn more »
comments
print report bad tab
13 comments total. Showing first comments.
0 reply
spdaniel91 42 Jul 11, 2008 01:16 PM

Perfect!

0 reply
GuzzyRawks 10 Aug 26, 2008 09:30 AM

this is all good but what do you think about :

e|-----------4-----------|
B|-----------5-----------|
G|-----------4-----------|
D|-----------------------|
A|-----------------------|
E|-----------------------|

after the A chord in the verses ?

0 reply
BBJGr 200 Aug 26, 2008 09:45 AM

Good Thinking.. It's something like that.. maybe a combination of the two like:
e|-----------4-----------|
B|-----------5-----------|
G|-----------4-----------|
D|-----------2-----------|
A|-----------0-----------|
E|-----------------------|

But it's a way harder chord :]

Thanks for the comment

guest
You may want to rate the tab now too:
select rating
Wanna post a correction for this tab? Suggest correction