Oops, an error
Loading. Please wait.

Come Alive bass

version 1
version 1

Whole song

Interactive

8,436 views 1 this week
1 commentread comment
1 2 3 4 5
x 8
add to favorites
×
Save as Personal and add changes to this tab that will be seen only by you. Learn more ›
×
You can save this tab as Personal to edit and correct it or add notes. All changes will be seen only by you. Learn more »
launch autoscroll
font size
0
reset
guitar tuner
edit
Autoscroll
slow
fast
+/-
esc
set tempo
stop
Author
FF-Come Alive

Start at:|
         |
         V
Pre-Chorus (00:54):
G|-----------------|-----------------|-----------------|
D|-----------------|-----------------|-----------------|
A|-----------------|-----------------|-----------------|
E|3----------------|5----------------|/7---------------|

G|-----------------|-----------------|-----------------|
D|-----------------|-----------------|-----------------|
A|-----------------|-----------------|-----------------|
E|3----------------|5----------------|/7---------------|

Verse (01:09):
G|-----------------|-----------------|-----------------|-----------------:|
D|9----------------|----6---6--------|9----------------|----6---6--------:|
A|----9---9--------|------------6----|----9---9--------|-----------------:|
E|------------9----|9----------------|------------9----|9----------------:|

Repeat Verse x4

Pre-Chorus (01:51)
G|-----------------|-----------------|-----------------|
D|-----------------|7-7-7--7-7-7-----|9-9-9--9-9-9-----|
A|-----------------|-----------------|-----------------|
E|3-3-3--3-3-3-----|-----------------|-----------------|

Repeat Pre-Chorus x3  then...

Pre-Chorus Ending (02:14)
G|-----------------|-----------------|-----------------|
D|-----------------|7-7-7--7-7-7-----|9-9-9--9---------|
A|-----------------|-----------------|-----------------|
E|3-3-3--3-3-3-----|-----------------|-----------------|

Chorus (02:32):
G|----------------------------------------------------|
D|----------------------------------------------------|
A|----------------------------------------------------|
E|7--7-5-7-5--7--7-5-7-5--7--7-5-7-5--7--7-5-7-5------|

G|----------------------------------------------------|
D|----------------------------------------------------|
A|5--5-5------4--4-4----------------------------------|
E|-------7-5---------7-5--7--7-5-7-5--7--7-5-7-5------|

G|----------------------------------------------------|
D|----------------------------------------------------|
A|5--5-5------4--4-4----------------------------------|
E|-------7-5---------7-5--7--7-5-7-5--7--7-5-7-5------|

G|----------------------------------------------------|
D|----------------------------------------------------|
A|5--5-5------4--4-4----------------------------------|
E|-------7-5---------7-5--7--7-5-7-5--7--7-5-7-5------|

(02:53)
G|------------------------------------------------|
D|------------------------------------------------|
A|------------------------------------------------|
E|3--3-3-3-3--3--3-3-3-3--5--5-5-5-5--5--5-0-5-0--|

G|------------------------------------------------|
D|------------------------------------------------|
A|------------------------------------------------|
E|0--0-0-0-0--0--0-0-5-0--0--0-0-0-0--0--0-0-5-0--|

G|------------------------------------------------|
D|------------------------------------------------|
A|------------------------------------------------|
E|3--3-3-3-3--3--3-3-3-3--5--5-5-5-5-5--5-5-5-5---|

G|------------------------------------------------|
D|------------------------------------------------|
A|------------------------------------------------|
E|0--0-0-5-0--0--0-0-5-0--0--0-0-5-0--0--0-0-5-0--|

(03:14)
G|-----------------------------------------------------------------------|
D|-----------------------------------------------------------------------|
A|-----------------------------------------------------------------------|
E|3--3-3-3----3--3-3-3----2--2-2-2----2--2-2-2----0--0-0-0----0--0-0-0---|

G|-----------------------------------------------------------------------|
D|-----------------------------------------------------------------------|
A|5--5-5-5----5--5-5-5----4--4-4-4----4--4-4-4----33333333333333333333333|
E|-----------------------------------------------------------------------|

Electric Chorus (03:31):
G|:-----------------|-----------------|-----------------|-----------------:|
D|:-----------------|-----------------|-----------------|-----------------:|
A|:2-2-2----2-2-2---|2-2-2----2-2-2---|-----------------|-----------------:|
E|:-----------------|-----------------|0-0-0----0-0-0---|0-0-0----0-0-0---:|

Repeat Electric Chorus x4
Repeat Chorus (02:53) x1
Repeat Chorus (03:14) x1 
End on A|--2--

Have Fun

            
            
Suggest correction
Creating personal tab
Creating personal tab
You can edit any tab online and save it as your Personal.

You can edit, replace or remove any tab part or add personal notes – all changes will be seen only by you.

Personal tabs can be accessed anytime from any device, even offline.
Learn more »
comments
print report bad tab
1 comment total.
0 reply
petebass 10 Dec 18, 2007 06:55 AM

very accurate
u just missed out the very start
but its quite self explanitory
cheers

guest
You may want to rate the tab now too:
select rating
Wanna post a correction for this tab? Suggest correction