Oops, an error
Loading. Please wait.

Come Alive Chords

version 2
version 2

Whole song

  • Cleaner formatting and full layout. Includes chords to the whole song.

Interactive

358 views 12 this week
no commentswrite comment
1 2 3 4 5
2 more votes to show rating
add to favorites
launch autoscroll
font size
0
reset
transpose
0
reset
simplify chords
display chords
guitar tuner
Autoscroll
slow
fast
+/-
esc
set tempo
stop
Help us to improve Ultimate-Guitar.com Take our survey!
×
Author
Difficulty
intermediate
About this tab version
Cleaner formatting and full layout. Includes chords to the whole song. Was this info helpful? Yes No
------------------------------------------  Tabbed by Josh Hughes
       Foo Fighters - Come Alive
------------------------------------------
    Echoes, Silence, Patience & Grace
------------------------------------------
                  2007


 Bm  F#m Asus2 E   G   A   B   Em  Bm7  Bbm7

e|--2-|-2-|-0-|-0-|-2-|-2-|-2-|-0--|-2-|-1-|
B|--3-|-2-|-0-|-0-|-0-|-0-|-4-|-0--|-3-|-2-|
G|--4-|-2-|-2-|-1-|-0-|-2-|-4-|-0--|-2-|-1-|
D|--4-|-4-|-2-|-2-|-0-|-2-|-4-|-2--|-4-|-3-|
A|--2-|-4-|-0-|-2-|-2-|-0-|-2-|-2--|-2-|-1-|
E|--2-|-2-|---|-0-|-3-|---|-2-|-0--|-2-|-1-|


[Intro Riff]

e|-----------2----------------------------|
B|--3-------------------------------------|
G|-----4--------4-----2--------4----------|
D|--------4--------4-----4--------4-------|
A|--2-----------------------4--------4----|
E|--------------------2-------------------|


e|--0--------2----------------------------|
B|--------------------0--------0----------|
G|-----2--------2--------1--------1-------|
D|--------2--------2--------2--------2----|
A|--0-------------------------------------|
E|-------------------0--------------------|


e|-----------2----------------------------|
B|--3-------------------------------------|
G|-----4--------4-----2--------4----------|
D|--------4--------4-----4--------4-------|
A|--2-----------------------4--------4----|
E|--------------------2-------------------|


e|--0--------2----------------------------|
B|--------------------0-------------------|
G|-----2--------2-----1-------------------|
D|--------2--------2--2-------------------|
A|--0-----------------2-------------------|
E|----------------------------------------|

[Verse 1]

Bm              F#m
Seems like only yesterday
Asus2            E
Life belonged to runaways
Bm              F#m                  Asus2        E
Nothing here to see, no looking back
Bm          F#m
Every sound monotone
Asus2        E
Every color monochrome
Bm             F#m              Asus2          E
Life began to fade into the black
Bm             F#m   
Such a simple animal
Asus2            E
Sterilized with alcohol
Bm              F#m        Asus2      E
I could hardly feel me anymore
Bm            F#m
Desperate and meaningless
Asus2              E
All filled up with emptiness
Bm              F#m                Asus2         E
Felt like everything was said and done
[Chorus]
G                  A                     B                  
I lay there in the dark, and I closed my eyes
G                 A           B
You saved me the day you came alive

[Instrumental]

[Verse 2]

Bm             F#m
Still I try to find my way
Asus2          E
Spinning hours into days
Bm             F#m              Asus2         E
Burning like a flame behind my eyes
Bm            F#m
Drown in out, drink it in
Asus2             E
Crown the king of suffering
Bm           F#m            Asus2          E
Prisoner, a slave to the disguise
Bm            F#m
Disappear the only thing
Asus2          E
Bittersweet surrendering
Bm               F#m            Asus2      E
Knew that it was time to say goodbye

[Chorus]

G                   A                   B
I lay there in the dark and I closed my eyes
G                 A            B
You saved me the day you came alive
G          A             B
No reason left me to survive
G                A             B
You saved me the day you came alive

[Refrain]

     Bm7         Bbm7        B
Come alive, come alive, come alive, come alive
    Bm7         Bbm7        B
Come alive, come alive, come alive, come alive
    Bm7         Bbm7        B
Come alive, come alive, come alive, come alive
    Bm7         Bbm7        B
Come alive, come alive, come alive, come alive

[Chorus]

   G                A                   Em
I lay there in the dark and I closed my eyes
G                A            Em
You saved me the day you came alive

[Refrain]

     G5                      F#5
Come alive, come alive, come alive, come alive

     E5                       D5
Come alive, come alive, come alive, come alive

     C#5                     C5
Come alive, come alive, come alive, come alive
 
    C5                       C5          B5           
Come alive, come alive, come alive, come a-

[Solo] 

B5
Nothing more to give
B5
I can finally live
E5           E5
Come alive

B5
Your life into me
B5
I can finally breathe
E5
Come alive

[Chorus]

B5                 A5
I lay there in the dark
E5
And opened my eyes
B5               A5            E5
You saved me the day you came alive

[Outro]

     G5                      F#5
Come alive, come alive, come alive, come alive
     E5                       D5
Come alive, come alive, come alive, come alive
     C#5                  
Come alive, come alive, come alive-

//Ascending// 

C5 D5 E5 F#5 G5 A5 B5 C5 
B5
Suggest correction
Give kudos to tab author, rate the tab!
1 2 3 4 5
comments
print report bad tab
guest
You may want to rate the tab now too:
select rating
Wanna post a correction for this tab? Suggest correction