Oops, an error
Loading. Please wait.

Congregation tab

version 3
version 3

Whole song

Interactive

100 views 1 this week
no commentswrite comment
1 2 3 4 5
2 more votes to show rating
add to favorites
×
Save as Personal and add changes to this tab that will be seen only by you. Learn more ›
×
You can save this tab as Personal to edit and correct it or add notes. All changes will be seen only by you. Learn more »
launch autoscroll
font size
0
reset
how to read this tab
guitar tuner
edit
Autoscroll
slow
fast
+/-
esc
set tempo
stop
Author
Difficulty
About this tab version
100% right with the song. Was this info helpful? Yes No
Foo Fighters - Congregation

Album: 2014 - Sonic Highways
Instrument: Guitar
Tuning: eBGDAE





Intro
   Gtr 1
e||---3---3---0---2---2------------||
B||---3---3---3---3---3--------2---||
G||---0---0---0---2---2--------2---||
D||---0---0---2---0---0--------2---||
A||---2---0---2----------4--2--0---||
E||---3---2---0--------------------||

   2x
e||---3---3---0---2---2---------------------------------------------||
B||---3---3---3---3---3--------2------2------2------2----2------2---||
G||---0---0---0---2---2--------2------2------2------2----2------2---||
D||---0---0---2---0---0--------2------2------2------2----2------2---||
A||---2---0---2----------4--2--0------0------0------0----0------0---||
E||---3---2---0--------------------3b-----3b-----3b---3b-----3b-----||

   Gtr 2
e||------------------------------------------------------------||
B||------------------------------------------------------------||
G||---/-/-/-11b---11---9---7---7-9-7-9/11-6---4-9/11-6---------||
D||------------------------------------------------------9-7---||
A||------------------------------------------------------------||
E||------------------------------------------------------------||

e||--------------------------------------------------||
B||--------------------------------------------------||
G||---11b---11---9---7---7-9-7-9/11-6---4-2---4-2----||
D||--------------------------------------------------||
A||--------------------------------------------------||
E||--------------------------------------------------||


Verse
   Gtr 1
   4x
e||---3---3---0---2---2---------------------------------------------||
B||---3---3---3---3---3--------2------2------2------2----2------2---||
G||---0---0---0---2---2--------2------2------2------2----2------2---||
D||---0---0---2---0---0--------2------2------2------2----2------2---||
A||---2---0---2----------4--2--0------0------0------0----0------0---||
E||---3---2---0--------------------3b-----3b-----3b---3b-----3b-----||


Pre chorus
e||---0-0-0-0---3-3-2-3-2---0-0-3-3---0-0-0-0---||
B||---0-0-0-0---3-3-3-3-3---0-0-3-3---2-2-2-2---||
G||---0-0-0-0---0-0-2-2-2---0-0-0-0---2-2-2-2---||
D||---2-2-2-2---0-0-0-0-0---2-2-0-0---2-2-2-2---||
A||---2-2-2-2---2-2---------2-2-2-2---0-0-0-0---||
E||---0-0-0-0---3-3---------0-0-3-3-------------||


Chorus
   Gtr 1
   4x
e||---2---2---2---2---3---3---0---0---||
B||---3---3---3---3---3---3---3---3---||
G||---2---2---2---2---0---0---0---0---||
D||---0---0---0---0---2---2---2---2---||
A||-------------------0---0---2---2---||
E||---------------------------0---0---||

   Gtr 2
   4x
e||-----------------------------------------------------------||
B||----------10------------------------13-13-13-12-12-12-12---||
G||---7h9/11-----7h9/11-7--7h9/11-12---12-12-12-12-12-12-12---||
D||------------------------------------10-10-10--x--x--x--x---||
A||---------------------------------------------10-10-10-10---||
E||-----------------------------------------------------------||


Verse
   Gtr 1
   4x
e||---3---3---0---2---2---------------------------------------------||
B||---3---3---3---3---3--------2------2------2------2----2------2---||
G||---0---0---0---2---2--------2------2------2------2----2------2---||
D||---0---0---2---0---0--------2------2------2------2----2------2---||
A||---2---0---2----------4--2--0------0------0------0----0------0---||
E||---3---2---0--------------------3b-----3b-----3b---3b-----3b-----||

   Gtr 2
   2x
e||-----------------------------------------------------||
B||-----------------------------------------------------||
G||-----------------------------------------------------||
D||-----------------------------------------------------||
A||---10-10-10-10-10-10-10-10-12-12-12-12-12-12-12-12---||
E||-----------------------------------------------------||
   PM  .  .  .  .  .  .  .  .  .  .  .  .  .  .  .  .

e||-----------------------------------------------------------------------------||
B||-----------------------------------------------------------------------------||
G||-----------------------------------------------------------9-9-9-9-9-9-9-9---||
D||---9-9-9-9-9-9-9-9-11-11-11-11-11-11-11-11-9-9-9-9-9-9-9-9-------------------||
A||-----------------------------------------------------------------------------||
E||-----------------------------------------------------------------------------||
   PM . . . . . . . .  .  .  .  .  .  .  .  . . . . . . . . . . . . . . . . .
                                                            (gradually release)


Pre chorus
e||---0-0-0-0---3-3-2-3-2---0-0-3-3---0-0-0-0---||
B||---0-0-0-0---3-3-3-3-3---0-0-3-3---2-2-2-2---||
G||---0-0-0-0---0-0-2-2-2---0-0-0-0---2-2-2-2---||
D||---2-2-2-2---0-0-0-0-0---2-2-0-0---2-2-2-2---||
A||---2-2-2-2---2-2---------2-2-2-2---0-0-0-0---||
E||---0-0-0-0---3-3---------0-0-3-3-------------||


Chorus
   Gtr 1
   4x
e||---2---2---2---2---3---3---0---0---||
B||---3---3---3---3---3---3---3---3---||
G||---2---2---2---2---0---0---0---0---||
D||---0---0---0---0---2---2---2---2---||
A||-------------------0---0---2---2---||
E||---------------------------0---0---||

   Gtr 2
   4x
e||-----------------------------------------------------------||
B||----------10------------------------13-13-13-12-12-12-12---||
G||---7h9/11-----7h9/11-7--7h9/11-12---12-12-12-12-12-12-12---||
D||------------------------------------10-10-10--x--x--x--x---||
A||---------------------------------------------10-10-10-10---||
E||-----------------------------------------------------------||


Bridge
   Gtr 1
   2x
e||---3---3---0---2---2---------------------------------------------||
B||---3---3---3---3---3--------2------2------2------2----2------2---||
G||---0---0---0---2---2--------2------2------2------2----2------2---||
D||---0---0---2---0---0--------2------2------2------2----2------2---||
A||---2---0---2----------4--2--0------0------0------0----0------0---||
E||---3---2---0--------------------3b-----3b-----3b---3b-----3b-----||

   Gtr 2
e||------------------------------------------------------||
B||------------------------------------------------------||
G||---11b---11---9---7---7-9-7-9/11-6---4-9/11-6---------||
D||------------------------------------------------9-7---||
A||------------------------------------------------------||
E||------------------------------------------------------||

e||--------------------------------------------------||
B||--------------------------------------------------||
G||---11b---11---9---7---7-9-7-9/11-6---4-2---4-2----||
D||--------------------------------------------------||
A||--------------------------------------------------||
E||--------------------------------------------------||


Solo
   Gtr 1
   3x                  
e||---0-0-0-0---3-3-2-3-2---|---0-0-3-3---0-0-0-0---||
B||---0-0-0-0---3-3-3-3-3---|---0-0-3-3---2-2-2-2---||
G||---0-0-0-0---0-0-2-2-2---|---0-0-0-0---2-2-2-2---||
D||---2-2-2-2---0-0-0-0-0---|---2-2-0-0---2-2-2-2---||
A||---2-2-2-2---2-2---------|---2-2-2-2---0-0-0-0---||
E||---0-0-0-0---3-3---------|---0-0-3-3-------------||

   13x
e||---0-0-0-0--0-0-0-0--0-0-0--0---0--0--0--0----||
B||---3-3-3-3--3-3-3-3--3-3-3b-3b--3b-3b-3b-3b---||
G||----------------------------------------------||
D||----------------------------------------------||
A||----------------------------------------------||
E||----------------------------------------------||

e||-------------------------------------------------||
B||---10-10-10-10-10--8-8--6-6--10--8-8--12-12-12---||
G||----x--x--x--x--x--x-x--x-x---x--x-x---x--x--x---||
D||----7--7--7--7--7--5-5--3-3---7--5-5---9--9--9---||
A||-------------------------------------------------||
E||-------------------------------------------------||

e||---------------------------------------------------------------||
B||---10-10-10-10-10--12-12--13-13-13-13-13--15-15--12-12-12-12---||
G||----x--x--x--x--x---x--x---x--x--x--x--x---x--x---x--x--x--x---||
D||----7--7--7--7--7---9--9--10-10-10-10-10--12-12---9--9--9--9---||
A||---------------------------------------------------------------||
E||---------------------------------------------------------------||

e||--------------------------------------------------------------||
B||---10-10-10-10-10--12-12--13-13-13-13-13--15-15-15-15-15-15---||
G||----x--x--x--x--x---x--x---x--x--x--x--x---x--x--x--x--x--x---||
D||----7--7--7--7--7---9--9--10-10-10-10-10--12-12-12-12-12-12---||
A||--------------------------------------------------------------||
E||--------------------------------------------------------------||

   Gtr 2
e||----0--0--0--0---0-0---0-0---0-0---0-0---0-0---0-0---0---||
B||---10-10-10-10-\-8-8-\-7-7-\-5-5-/-8-8-\-7-7-\-5-5-\-3---||
G||---------------------------------------------------------||
D||---------------------------------------------------------||
A||---------------------------------------------------------||
E||---------------------------------------------------------||

e||---10----10-10-------------------------------||
B||---10h12-12-10h12-10-------------------------||
G||---------------------12-11---11---12-11------||
D||----------------------------------------12---||
A||---------------------------------------------||
E||---------------------------------------------||

e||----0---0-0-------------------------3------7-------10--------14---||
B||---/5---5-3-0---0-0-0-0-0-0---------0------0--------0---------0---||
G||------------0-2/4-4-4-4-4-2-0---2/4----4/7----7/11-----11/14------||
D||------------------------------------------------------------------||
A||------------------------------------------------------------------||
E||------------------------------------------------------------------||

e||----0-----------------------------15-15-15-17-19--10-14-14-14-14-14-14--12--10---||
B||---17---17-15--10-12-8-10---8-----15-15-15-15-15--10-10-10-10-10-10-10--10--10---||
G||--------------------------9---9--------------------------------------------------||
D||---------------------------------------------------------------------------------||
A||---------------------------------------------------------------------------------||
E||---------------------------------------------------------------------------------||

e||----------------------------------------------------------------------------------------||
B||---5-----8----12----15--15--15--15--15--15--15--15--17--17--17--17--17--17--17----------||
G||---7b---10b---14b---17b-17b-17b-17b-17b-17b-17b-17b-19b-19b-19b-19b-19b-19b-19b---------||
D||----------------------------------------------------------------------------------------||
A||----------------------------------------------------------------------------------------||
E||--------------------------------------------------------------------------------\-\-\---||

e||---10----------------------------------------------------------------||
B||---10----------------------------------------------------------------||
G||---10--------10-10-10-10-10-10-10-10-10-10-10-10-10-10-10-10-10-10---||
D||-------------12-12-12-12-11-11-11-11-10-10-10-10--9--9--9-10-11-12---||
A||---------------------------------------------------------------------||
E||---------------------------------------------------------------------||

e||---------------------------------------------------------------------------------------||
B||---10-10-10-10--------------------------------------------------10------/13---10--15---||
G||---10-10-10-10-12-12-12-12-10-10-10-10--9--9--9--9-----------10-----10-----------------||
D||---12-12-12-12-12-12-12-12-12-12-12-12-12-12-12-12/9-7h9--12---------------------------||
A||---------------------------------------------------------------------------------------||
E||---------------------------------------------------------------------------------------||

                                            9x
e||----------------------------------------|-----------||
B||---13-11-10---8h10h8--6h8p8--5h6p5--3---|---3p1-----||
G||----------------------------------------|-------2---||
D||----------------------------------------|-----------||
A||----------------------------------------|-----------||
E||----------------------------------------|-----------||

e||---------1-----------------------------------------------------||
B||---3-1-3-----3-1-3-----3-1-3-----3-1-3-------------------------||
G||-------------------2---------1---------0---0-------------------||
D||---------------------------------------------3-0-3---0---0-3---||
A||-------------------------------------------------------3-------||
E||---------------------------------------------------------------||

e||---------1-------------------------------------------||
B||---3-1-3-----3-1-3-----3-1-3-----3-1-3---------------||
G||-------------------2---------1---------0---0---------||
D||---------------------------------------------3-0-0---||
A||-----------------------------------------------------||
E||-----------------------------------------------------||
   
e||-----------8-----------10-----------------------8---15p13----13------------13---||
B||---10-8-10-----10-8-10------10-8-10-6---10-8-10-----------15------15-13-15------||
G||--------------------------------------------------------------------------------||
D||--------------------------------------------------------------------------------||
A||--------------------------------------------------------------------------------||
E||--------------------------------------------------------------------------------||

e||-----------8-----------10-----------------------8---15p13------------------------------||
B||---10-8-10-----10-8-10------10-8-10-6---10-8-10-----------15-15-15-15-15-15-15-15-15---||
G||---------------------------------------------------------------------------------------||
D||---------------------------------------------------------------------------------------||
A||---------------------------------------------------------------------------------------||
E||---------------------------------------------------------------------------------------||

   Gtr 3
e||------------------------------------------------------------------------||
B||------------------------------------------------------------------------||
G||---7-7-7-7-7-7-7-7--10-10-10-10-10-10-10-10---12-12-12-12-12-12-12-12---||
D||---7-7-7-7-7-7-7-7--10-10-10-10-10-10-10-10---12-12-12-12-12-12-12-12---||
A||---5-5-5-5-5-5-5-5---8--8--8--8--8--8--8--8---10-10-10-10-10-10-10-10---||
E||------------------------------------------------------------------------||
   PM . . . . . . . .   .  .  .  .  .  .  .  .    .  .  .  .  .  .  .  .

   3x
e||------------------------------------------------------------------------||
B||------------------------------------------------------------------------||
G||---7-7-7-7-7-7-7-7--10-10-10-10-10-10-10-10---12-12-12-12-12-12-12-12---||
D||---7-7-7-7-7-7-7-7--10-10-10-10-10-10-10-10---12-12-12-12-12-12-12-12---||
A||---5-5-5-5-5-5-5-5---8--8--8--8--8--8--8--8---10-10-10-10-10-10-10-10---||
E||------------------------------------------------------------------------||

   Gtr 4
e||------------13--------------------------------------------------------------------------||
B||---15-13-15------15-13-15------15-13-15------15-13-15-----------------------------------||
G||--------------------------14------------13-------------12---12/10----10------------10---||
D||------------------------------------------------------------------12------12-10-12------||
A||----------------------------------------------------------------------------------------||
E||----------------------------------------------------------------------------------------||

e||------------13------------------------------------------------------------||
B||---15-13-15------15-13-15------15-13-15------15-13-15---------------------||
G||--------------------------14------------13-------------12---12/10---------||
D||------------------------------------------------------------------12-12---||
A||--------------------------------------------------------------------------||
E||--------------------------------------------------------------------------||

e||------------13--------------------------------------------------------------------------||
B||---15-13-15------15-13-15------15-13-15------15-13-15-----------------------------------||
G||--------------------------14------------13-------------12---12/10----10------------10---||
D||------------------------------------------------------------------12------12-10-12------||
A||----------------------------------------------------------------------------------------||
E||----------------------------------------------------------------------------------------||

e||------------13------------------------------------------------------------||
B||---15-13-15------15-13-15------15-13-15------15-13-15---------------------||
G||--------------------------14------------13-------------12---12/10---------||
D||------------------------------------------------------------------12-12---||
A||--------------------------------------------------------------------------||
E||--------------------------------------------------------------------------||


Outro
   Gtr 1
   5x
e||---3---3---0---2---2---------------------------------------------||
B||---3---3---3---3---3--------2------2------2------2----2------2---||
G||---0---0---0---2---2--------2------2------2------2----2------2---||
D||---0---0---2---0---0--------2------2------2------2----2------2---||
A||---2---0---2----------4--2--0------0------0------0----0------0---||
E||---3---2---0--------------------3b-----3b-----3b---3b-----3b-----||

   2x
e||---3---3---0---2---2------------||
B||---3---3---3---3---3--------2---||
G||---0---0---0---2---2--------2---||
D||---0---0---2---0---0--------2---||
A||---2---0---2----------4--2--0---||
E||---3---2---0--------------------||

   Gtr 2
e||------------------------------------------------------------||
B||------------------------------------------------------------||
G||---/-/-/-11b---11---9---7---7-9-7-9/11-6---4-9/11-6---------||
D||------------------------------------------------------9-7---||
A||------------------------------------------------------------||
E||------------------------------------------------------------||

e||--------------------------------------------------||
B||--------------------------------------------------||
G||---11b---11---9---7---7-9-7-9/11-6---4-2---4-2----||
D||--------------------------------------------------||
A||--------------------------------------------------||
E||--------------------------------------------------||

e||---------------------------------------------------------------------||
B||---0-0-0-0-0-0-0-0-0-0-0-0-0-0-0-0-0-0-0-0-0-0-0-0-0-0-0-0-0-0-0-0---||
G||---0-0-0-0-0-0-0-0-2-2-2-2-2-2-2-2-4-4-4-4-4-4-4-4-6-6-6-6-6-6-6-6---||
D||---------------------------------------------------------------------||
A||---------------------------------------------------------------------||
E||---------------------------------------------------------------------||

e||-------------------------------------3---3---0---2---2------------||
B||---0-0-0-0-0-0-0-0-0-0-0-0-0-0-0-0---3---3---3---3---3--------2---||
G||---7-7-7-7-7-7-7-7-9-9-9-9-9-9-9-9---0---0---0---2---2--------2---||
D||-------------------------------------0---0---2---0---0--------2---||
A||-------------------------------------2---0---2----------4--2--0---||
E||-------------------------------------3---2---0--------------------||



************************************

| p    Pull-off
| pbr  Pre-bend release
| ~    Vibrato
| h    Hammer-on
| /    Slide up
| br   Bend release
| \    Slide down
| b    Bend 

************************************
Suggest correction
Creating personal tab
Creating personal tab
You can edit any tab online and save it as your Personal.

You can edit, replace or remove any tab part or add personal notes – all changes will be seen only by you.

Personal tabs can be accessed anytime from any device, even offline.
Learn more »
Give kudos to tab author, rate the tab!
1 2 3 4 5
comments
print report bad tab
guest
You may want to rate the tab now too:
select rating
Wanna post a correction for this tab? Suggest correction