Oops, an error
Loading. Please wait.

Down In The Park Bass Tab

version 2
version 2

Whole song

Interactive

1,086 views 9 this week
no commentswrite comment
1 2 3 4 5
please rate
add to favorites
launch autoscroll
font size
0
reset
guitar tuner
Autoscroll
slow
fast
+/-
esc
set tempo
stop
Help us to improve Ultimate-Guitar.com Take our survey!
×
Author
band:foo fighters

song:down in the park

bassist:nate mendel

tabbed by:shane davis

tuning:standard


intro/main riff
G-------------------------------------------------------------------|
D-------------------------------------------------------------------|
A--2-2-2-2-2-2-2-2-4-4-4-4-4-4-4-4----------------------------------|
E----------------------------------5-5-5-5-5-5-5-5-0-0-0-0-0-0-0-5--|


G-------------------------------------------------------------------|
D-------------------------------------------------------------------|
A--2-2-2-2-2-2-2-2-4-4-4-4-4-4-4-4----------------------------------|
E----------------------------------0-2-4-4-4-4-4-4-4-4-4-4-4-4-4-4--|


chorus
G------------------------------------------------------|
D------------------------------------------------------|
A------------------------------------------------------|
E--5------5------3------3------0------0------0------0--|


outro(repeat til fade)
G---------------------------------|
D---------------------------------|
A---------------------------------|
E--5------5------5------5------5--|

Suggest correction
Give kudos to tab author, rate the tab!
1 2 3 4 5
comments
print report bad tab
guest
You may want to rate the tab now too:
select rating
Please do not post tabs as comments. Select "correction" instead!