Oops, an error
Loading. Please wait.

Enough Space Bass Tab

version 3
version 3

Whole song

Interactive

2,357 views 12 this week
1 commentread comment
1 2 3 4 5
x 7
add to favorites
launch autoscroll
font size
0
reset
guitar tuner
Autoscroll
slow
fast
+/-
esc
set tempo
stop
Help us to improve Ultimate-Guitar.com Take our survey!
×
Author
Difficulty
novice
-------------------------------------------------------------------------------
                             Enough Space - Foo Fighters
-------------------------------------------------------------------------------

Tabbed by: Zaqq
E-mail: zaqqthe@gmail.com

Tuning: standard (EADG)

Tempo: 145 BPM

Intro and the first chorus. Use Distortion effect. 6/4 time signature.

G|------------------------------------|---|----------------------------------|
D|------------------------------------|---|-------4h-7p4-----2---------------|
A|---------3--4-----------------------|x15|------------------------4--2--0---|
E|-3--------------0--3--4--5----5--0--|---|-3--------------------------------|

Verse and chorus. Clean sound (no more Distortion from this point). 6/4 time signature.

G|------------------------------------|---|----------------------------------|
D|------------------------------------|---|-------4h-7p4-----2---------------|
A|---------3--4-----------------------|x11|------------------------4--2--0---|
E|-3--------------0--3--4--5----5--0--|---|-3--------------------------------|

G|------------------------------------|
D|------------------------------------|
A|---------3--4-----------------------| x 16
E|-3--------------0--3--4--5----5--0--|

Bridge. 4/4 time signature.

G|----------------------|----------------------|
D|----------------------|----------------------|
A|----------------------|----------------------| x 3
E|-2--2--0--2-/-14-\----|-2--2--0--2-/-10-\----|

G|----------------------|----------------------|
D|----------------------|----------------------|
A|----------------------|----------------------|
E|-2--2--0--2-/-10-\----|-2-------/-14-\-------|
                         (slowly slide up to 14 and then slide down)

Chorus (ending). 6/4 time signature.

G|------------------------------------|
D|------------------------------------|
A|---------3--4-----------------------| x 4
E|-3--------------0--3--4--5----5--0--|

G|---------------------5--6-----9----|
D|---------------5--7--------7-------|
A|---------3--4----------------------| x 3
E|-3---------------------------------|

G|-----------------------------------|
D|-----------------------------------|
A|---------3--4----------------------|
E|-3--------------0--3--4--5--5--5-\-|

| /  slide up
| \  slide down
| h  hammer on
| p  pull off
===============================================================================
Suggest correction
comments
print report bad tab
1 comment total.
0 reply
pokagbamo 102 Feb 28, 2014 03:43 PM

FINALLY a correct version of this. Thank you.

guest
You may want to rate the tab now too:
select rating
Wanna post a correction for this tab? Suggest correction