Oops, an error
Loading. Please wait.

Erase Replace Bass Tab

version 1
version 1

Whole song

Interactive

1,844 views 1 this week
no commentswrite comment
1 2 3 4 5
please rate
add to favorites
launch autoscroll
font size
0
reset
guitar tuner
Tab Pro tools
  • play this tab
  • loop segment
  • change instrument
  • show fretboard
  • metronome
×
Best way to learn
"Erase Replace"
Autoscroll
slow
fast
+/-
esc
set tempo
stop
Contributor
Intro (00:00): 
G|-----------------|-----------------|-----------------|-----------------| 
D|-----------------|-----------------|-----------------|-----------------| 
A|-----------------|-----------------|-----------------|-----------------| 
E|4-4-4-4-4-4-4-4--|5-5-5-5-5-5-5-5--|6-6-6-6-6-6-6-6--|8-8-8-8-8-8-8-8--| 

G|-----------------|-----------------|-----------------|-----------------| 
D|-----------------|-----------------|-----------------|-----------------| 
A|-----------------|-----------------|-----------------|-----------------| 
E|4-4-4-4-4-4-4-4--|5-5-5-5-5-5-5-5--|6-6-6-6-6-6-6-6--|8---8---8---8----| 

Verse (00:15): 
G|-----------------|-----------------|:-----------------|-----------------:| 
D|---R--E--S--T----|---R--E--S--T----|:-----------------|-----------------:| 
A|-----------------|-----------------|:66666--6-33333-7-|66666--6-33333-7-:| 
E|-----------------|-----------------|:--------6-------5|--------6-------5:| 

Repeat Bars x3 

Verse (00:40): 
G|-----------------|-----------------|-----------------|-----------------| 
D|-----------------|-----------------|-----------------|----1111-3/5-----| 
A|66666------------|33333-777777777--|66666------------|3333----------3--| 
E|-----66666666667-|---------------5-|------6666666666-|-----------------| 

G|-----------------|-----------------|-----------------|-----------------| 
D|-----------------|-----------------|-----------------|-----------------| 
A|66666------------|33333-777777777--|66666------------|3----------------| 
E|-----66666666667-|---------------5-|-----66666666667-|-----------------| 

Chorus (00:55): 
G|-----------------|-----------------|-----------------|-----------------| 
D|-----------------|-----------------|-----------------|-----------------| 
A|-----------------|-----------------|-----------------|-----------------| 
E|4-4-4-4-4-4-4-4--|5-5-5-5-5-5-5-5--|6-6-6-6-6-6-6-6--|8-8-8-8-8-8-8-8--| 

Repeat Chorus x4 

Pre-Verse (01:24) 
G|-----------------| 
D|-----------------| 
A|66666----33333-7-| 
E|----------------5| 

Repeat Verse  out rests + last 4 bars of Verse (00:40) 
(01:52)  Repeat Chorus (00:55) x4 


Rest until (02:36) 

Verse 2 (02:36): 
G|-----------------------------------|-----------------------------------| 
D|-----------------------------------|-----------------------------------| 
A|3-0-0-3-0-0-3-0-0-3-0-0-0-0-0-3-0--|0----------------------------------| 
E|-----------------------------------|--4-6-4-4-6-4-4-4-4-4-4-4-4-4-4-4--| 
   
G|-----------------------------------|-----------------------------------| 
D|-----------------------------------|-----------------------------------| 
A|-----------------------------------|--0-0-0-0-0-0-0-0-0-0-0-0-0-0-0-0--| 
E|4-3-3-3-3-3-3-3-3-3-3-3-3-3-3-3-3--|3----------------------------------| 

G|-----------------------------------|-----------------------------------| 
D|-----------------------------------|-----------------------------------| 
A|3-3-3-3-3-3-3-3-3-3-3-3-3-3-3-3-3--|3-1-1-1-1-1-1-1-1-1-1-1-1-1-1-1-1--| 
E|-----------------------------------|-----------------------------------| 

G|-----------------------------------|-----------------------------------| 
D|-----------------------------------|-----------------------------------| 
A|1----------------------------------|0-0-0-0-0-0-0-0-0-0-0-0-0-0-0-0-0--| 
E|--3-3-3-3-3-3-3-3-3-3-3-3-3-3-3-3--|-----------------------------------| 

(03:05) Repeat Chorus x8 
(04:04) Repeat last two bars of Verse (00:15) x2 and end on beat 3
comments
We did not receive enough feedback on this tab! Please rate:
print report bad tab
1 2 3 4 5
I want to post or [tab]
guest
You may want to rate the tab now too:
select rating
Please do not post tabs as comments. Select "correction" instead!