Oops, an error
Loading. Please wait.

Erasereplace Tab

version 1
version 1

Whole song

Interactive

4,781 views 1 this week
8 commentsread comments
1 2 3 4 5
x 6
add to favorites
launch autoscroll
font size
0
reset
how to read this tab
guitar tuner
Autoscroll
slow
fast
+/-
esc
set tempo
stop
Author
-------------------------------------------------------------------------------
                            Erase/Replace - Foo Fighters
-------------------------------------------------------------------------------
Tabbed by: Jordan Greczkowski
Email: jgsox33@sbcglobal.net
Tuning: Standard

So the tab I originally had up was bad and just had a bunch of powerchords and the wrong 
So with the help of others (thanks!), here is Erase/Replace by the Foo Fighters, enjoy!

--INTRO--
--Guitar 1--
e||----------------------------------------------------||
B||-----------13--10b----------------------------------||
G||-------------------10-----------------15--10b-------||
D||-----10/13---------------------12/15----------10----||
A||--11------------------12----13------------------10--||
E||----------------------------------------------------||

e||---------------------------------------------------------------||
B||-----------13--10b--------------------------------------16-----||
G||-------------------10-----------------15-------15----15----15--||
D||-----10/13---------------------12/15-----12/15----15-----------||
A||--11------------------12----13---------------------------------||
E||---------------------------------------------------------------||

--Guitar 2--
e||-------------------------------||
B||-------------------------------||
G||-------------------------------||
D||-------------------------------|| x4
A||--6--x8--8--x8--8--x8--10--x8--||
E||--4------5------6------8-------||


--VERSE--
--Guitar 1--
e||-----------||
B||-----------||
G||-----------||
D||--8-8-8-8--|| x176!
A||-----------||
E||-----------||
--Guitar 2--
e||------------------------||
B||------------------------||
G||------------------------||
D||------------------------|| x6
A||--66666-----33333-10----||
E||--------6---------------||

--Guitar 2--
e||-----------------------------------------||
B||-----------------------------------------||
G||-----------------------------------------||
D||-----------------------------------------|| x3
A||--66666----------3333333333--1010101010--||
E||-------6666666666------------------------||

--Guitar 2--
e||---------------------||
B||---------------------||
G||---------------------||
D||---------------------||
A||--66666-----------3--||
E||--------6666666666---||


--CHORUS--
--Both Guitars--
e||-------------------------------||
B||-------------------------------||
G||-------------------------------||
D||-------------------------------|| x4
A||--6--x8--8--x8--8--x8--10--x8--||
E||--4------5------6------8-------||

then Repeat --VERSE--
then Repeat --CHORUS--

THEN
--Guitar 1-------------------------------------------------------------|| PLAY THIS 3 TIMES
e||--------------------------------------------------------------------||
B||--------------------------------------------------------------------||
G||---------------------------------------9-x8-------------------------||
D||--10-x15---12--12---13-x8--12-12-10-10------10-10-10-12-12-12-7-x16-||
A||--------------------------------------------------------------------||
E||--------------------------------------------------------------------||
--Guitar 2-- Very low volume
e||-----------||
B||-----------||
G||------0----||
D||----0------|| x24
A||--3--------||
E||-----------||

THEN
--Guitar 1--
e||----------------------------------------------------||
B||-----------13--10b----------------------------------||
G||-------------------10-----------------15--10b-------||
D||-----10/13---------------------12/15----------10----||
A||--11------------------12----13------------------10--||
E||----------------------------------------------------||
--Guitar 2-- Very low volume
e||-----------||
B||-----------||
G||------0----||
D||-----------|| x8
A||--3-5------||
E||-----------||

THEN
--Guitar 1--
e||-------------------------------||
B||-------------------------------||
G||-------------------------------||
D||-------------------------------|| x4
A||--6--x8--8--x8--8--x8--10--x8--||
E||--4------5------6------8-------||
--Guitar 2--
e||------||
B||------||
G||------||
D||--10--|| x32
A||------||
E||------||

--Guitar 1--
e||-------------------------------||
B||-------------------------------||
G||-------------------------------||
D||-------------------------------|| x4
A||--6--x8--8--x8--8--x8--10--x8--||
E||--4------5------6------8-------||
--Guitar 2--
e||----------------------------------------------------||
B||-----------13--10b----------------------------------||
G||-------------------10-----------------15--10b-------||
D||-----10/13---------------------12/15----------10----|| x1
A||--11------------------12----13------------------10--||
E||----------------------------------------------------||

--Guitar 2--
e||------||
B||------||
G||------||
D||--10--|| x32
A||------||
E||------||

THEN
--Guitar 1--
e||------------------------------||
B||------------------------------||
G||------------------------------||
D||--13-x8--15-x8--17-x8--15-x8--||
A||------------------------------||
E||------------------------------||

--OUTRO--
--Guitar 1--
e||---------------||
B||---------------||
G||--17b-17-17-17-||
D||---------------|| x8
A||---------------||
E||---------------||

--Guitar 2--
e||-------------------------------||
B||-------------------------------||
G||-------------------------------||
D||-------------------------------|| x4
A||--6--x8--8--x8--8--x8--10--x8--||
E||--4------5------6------8-------||

--Guitar 2--
e||--------------------------------------||
B||--------------------------------------||
G||--------------------------------------||
D||--------------------------------------||
A||--66666-----33333-10---66666---33333--||
E||--------6--------------------6--------||
Suggest correction
comments
print report bad tab
8 comments total. Showing first comments.
+1 reply
JGsox33 275 Oct 05, 2007 09:52 AM

Quit spamming the comment area of my tabs please. Nobody really cares.

+1 reply
Grinspoon-Guy 41 Oct 31, 2007 12:42 AM

for chorus how bout this...

e|------------------------------------------------------------------|
B|------------------------------------------------------------------|
G|------------------------------------------------------------------|
D|------------------------------------------------------------------|
A|-6-6-6-6-6-6-6-6-8-8-8-8-8-8-8-8-8-8-8-8-8-8-8-8-101010101010101010-----------------------------------|
E|-4-4-4-4-4-4-4-4-5-5-5-5-5-5-5-5-6-6-6-6-6-6-6-6-8-8-8-8-8-8-8-8-8|

0 reply
JGsox33 275 Oct 31, 2007 06:43 PM

Yeah that sounds better. Go ahead and make your own tab, maybe they'll accept it... the past few tries for me they've rejected... even though they sounded pretty good... but oh well.

guest
You may want to rate the tab now too:
select rating
Wanna post a correction for this tab? Suggest correction