Oops, an error
Loading. Please wait.

Everlong Tab

version 6
5,026 views 6 this week
no commentswrite comment
1 2 3 4 5
please rate
add to favorites
launch autoscroll
font size
0
reset
how to read this tab
guitar tuner
Autoscroll
slow
fast
+/-
esc
set tempo
stop
Help us to improve Ultimate-Guitar.com Take our survey!
×
Author
Difficulty
Tuning
intermediate
D A D G B E
This is a Revised edition of a c g's revision of kornamp311's tab. Hope you enjoy it!


drop D tuning (DADGBE)


intro/verse
e|-----------------------------------------|
B|-----------------------------------------|
G|-----------------------------------------|
D|-----11---11-11---11------11---11-11-11--|
A|-----9----9--9----9-------9----9--9--9---|
D|-0-0-----------0-----0-0----0-----------7|

e|-----------------------------------------|
B|-----------------------------------------|
G|-----------------------------------------|
D|-----11---11-11---11------11---11-11-11--|
A|-----9----9--9----9-------9----9--9--9---|
D|-9-9----9------9-----9-9----9-----------7|

e|------------------------------------------------------|
B|------------------------------------------------------|
G|------------------------------------------------------|
D|-----7-7-----7--------11-11----11-11---11-11-----11-11|
A|-----5-5-----5--------9--9-----9--9----9--9------9--9-|
D|-5-5-----5-5---5--9-9------9-9------9-9------9-9------|

prechorus
e|------------------------------------------------|
B|--------------------------------10-1010-10101010|
G|--------------------------------9--9-9--9-9-9-9-|
D|--------------------------------7--7-7--7-7-7-7-|
A|-4-4-4-5-5-5-7-7-7-9-9-9-9-109--7--7-7--7-7-7-7-|
D|-0-0-0-0-0-0-0-0-0-0-0-0-0-0-0--7--7-7--7-7-7-7-| repeat

e|------------------------------|
B|------------------------------|
G|------------------------------|
D|------------------------------|
A|-4-4-4-5-5-5-7-7-7-9-9-9-9-109|
D|-0-0-0-0-0-0-0-0-0-0-0-0-0-0-0|

chorus
e|-----------------------------------------------------------|
B|-----------------------------------------------------------|
G|-11-1111-11119-7--7-7--7-7-7-7--7-7--7-7-7--7-7-7-7-7-7-7-7|
D|-9--9-9--9-9-7-5--5-5--5-5-5-7--7-7--7-7-7--7-7-7-7-7-7-7-7|
A|-9--9-9--9-9-7-5--5-5--5-5-5-5--5-5--5-5-5--5-5-5-5-5-5-5-5|
D|-9--9-9--9-9-7-5--5-5--5-5-5-0--0-0--0-0-0--0-0-0-0-0-0-0-0| repeat

e|-----------------------------------------------------|
B|-----------------------------------------101010101010|
G|-11-1111-11119-7--7-7--7-7-7-7-7-7-7-7-7-9-9-9-9-9-9-|
D|-9--9-9--9-9-7-5--5-5--5-5-5-7-7-7-7-7-7-7-7-7-7-7-7-|
A|-9--9-9--9-9-7-5--5-5--5-5-5-5-5-5-5-5-5-7-7-7-7-7-7-|
D|-9--9-9--9-9-7-5--5-5--5-5-5-0-0-0-0-0-0-7-7-7-7-7-7-|

e|---------------------------|
B|---------------------------|
G|-7-7-7-7-7-7-7-7-7-7-7-7-7-|
D|-5-5-5-5-5-5-5-5-5-5-5-5-5-|
A|-5-5-5-5-5-5-5-5-5-5-5-5-5-|
D|-5-5-5-5-5-5-5-5-5-5-5-5-5-|  

final chord

e|----|
B|----|
G|----|
D|-11-|
A|-9--|
D|-0--|

order:
intro-------play the verse x2
1st verse---play the verse x2
"interlude"-play the verse x1 (no singing)
2nd verse---play the verse x2
prechorus---play the prechorus
chorus------play the chorus
"interlude"-play the verse x1 (no singing)
3rd verse---play the verse x2
prechorus---play the prechorus
chorus------play the chorus
"interlude"-play the verse x1 (no singing)
prechorus---play the 1st block x4
chorus------hit the last chord really hard every third time then slow down
final chord-play the final chord x1

Hope you like it! Email any suggestions, comments, etc. to willdthrill@live.com.
Suggest correction
What's this?
You can suggest a correction to this tab. Community and Mods will review your correction and vote to approve or reject it.
comments
We did not receive enough feedback on this tab! Please rate:
print report bad tab
1 2 3 4 5
guest
You may want to rate the tab now too:
select rating
Please do not post tabs as comments. Select "correction" instead!