Oops, an error
Loading. Please wait.

Everlong Bass Tab

362,618 views 468 this week
22 commentsread comments
1 2 3 4 5
x 142
add to favorites
launch autoscroll
font size
0
reset
guitar tuner
Autoscroll
slow
fast
+/-
esc
set tempo
stop
Help us to improve Ultimate-Guitar.com Take our survey!
×
[Main]

G|---------------------------------------------------|
D|---------------------------------------------------|
A|-5-5-5-5-5-5-5-5-5-5-5-5-—2-2-2-2-2-2-2-2-2-2-2-2--|
E|---------------------------------------------------|
                                                        x8
G|---------------------------------------------------|
D|---------------------------------------------------|          
A|--------------------2-2-2-2-2-2-2-2-2-2-2-2-2-2-2-2|
E|-3-3-3-3-3-3-3-3-----------------------------------|


[Pre-Chorus]

G|--------------------------------------------|
D|--------------------------------------------|   x3
A|-4-4-4-4—-5-5-5-5—-7-7-7-7—-9-9-9-9--7-7-7-7|
E|--------------------------------------------|


[Chorus]

G|---------------------------------|
D|---------------------------------|   x2
A|-2-2-2-2-2--------------5-5-5-5-5|
E|-------------3-3-3-3-3-----------|

Last play of chorus

G|-----------------------------------------------|
D|-----------------------------------------------|
A|-2-2-2-2-2--------------5-5-5-5-5--------------|
E|--------------3-3-3-3-3-------------5-5-5-5-5-5|


[Main]

G|---------------------------------------------------|
D|---------------------------------------------------|
A|-5-5-5-5-5-5-5-5-5-5-5-5-—2-2-2-2-2-2-2-2-2-2-2-2--|
E|---------------------------------------------------|
                                                        x3
G|---------------------------------------------------|
D|---------------------------------------------------|          
A|--------------------2-2-2-2-2-2-2-2-2-2-2-2-2-2-2-2|
E|-3-3-3-3-3-3-3-3-----------------------------------|


[Pre-Chorus]

G|--------------------------------------------|
D|--------------------------------------------|   x3
A|-4-4-4-4—-5-5-5-5—-7-7-7-7—-9-9-9-9--7-7-7-7|
E|--------------------------------------------|


[Chorus]

G|---------------------------------|
D|---------------------------------|   x2
A|-2-2-2-2-2--------------5-5-5-5-5|
E|-------------3-3-3-3-3-----------|

Last play of chorus

G|-----------------------------------------------|
D|-----------------------------------------------|
A|-2-2-2-2-2--------------5-5-5-5-5--------------|
E|--------------3-3-3-3-3-------------5-5-5-5-5-5|


Wait for guitar only bit to finish


[Pre-Chorus]

G|--------------------------------------------|
D|--------------------------------------------|   x3
A|-4-4-4-4—-5-5-5-5—-7-7-7-7—-9-9-9-9--7-7-7-7|
E|--------------------------------------------|


[Chorus]

G|---------------------------------|
D|---------------------------------|   x2
A|-2-2-2-2-2--------------5-5-5-5-5|
E|-------------3-3-3-3-3-----------|

Last play of chorus

G|-----------------------------------------------|
D|-----------------------------------------------|
A|-2-2-2-2-2--------------5-5-5-5-5--------------|
E|--------------3-3-3-3-3-------------5-5-5-5-5-5|
Suggest correction
comments
print report bad tab
22 comments total. Showing first comments.
+3 reply
jackio1986 10 Jun 12, 2003 12:00 AM

man this is good i cant be arsed to detune

+3 reply
nmendies 30 Aug 01, 2006 01:44 PM

great tab - much better than the others

+2 reply
bullsonparade55 10 Dec 02, 2006 09:06 PM

good job with this man me and my friends jam with this all the time now

guest
You may want to rate the tab now too:
select rating
Wanna post a correction for this tab? Suggest correction