Oops, an error
Loading. Please wait.
We have an official Everlong tab made by UG professional guitarists. Check out the tab »
×

Everlong tab

version 1
version 1

Whole song

Video

64,324 views 2,646 this week
14 commentsread comments
1 2 3 4 5
x 25
add to favorites
×
Save as Personal and add changes to this tab that will be seen only by you. Learn more ›
×
You can save this tab as Personal to edit and correct it or add notes. All changes will be seen only by you. Learn more »
launch autoscroll
font size
0
reset
how to read this tab
guitar tuner
backing track
0:00
0:00
edit
Autoscroll
slow
fast
+/-
esc
set tempo
stop
Name: Matt Veneklase

Tabs: "Everlong" by the Foo Fighters, tabbed and rearranged by Matt 
Veneklase.


   When playing the intro and breakdown I use my middle finger like 
it's
a pick(downstrokes) to make it quieter.  That way I can still hold my 
pick and don't have to worry about a volume pedal.

  The number on the left of the chord diagram represents the low 
E-string, the number on the right represents the high e-string. 
An "X" means not to play that string.

Chords used in tab part: Dmaj7-10,9,11,XXX  F#sus4-79,11,XXX  
                         Dsus4-357XXX  A5-577XXX  B5-244XXX

/ = slide up
\ = slide down
P.M.------ = palm mute for length of dashed line
 
Part 1: Play this for the verses and the first part of the intro 
and breakdown, just play it once when playing the intro or breakdown.
The verses actually have a slightly different rhythm, listen to the
CD if you care.
   P.M.---------------------------------------------
   1  &  2  &  3  &  4  &    1  &  2  &  3  &  4  &
e|-------------------------|-------------------------|
B|-------------------------|-------------------------|
G|-------------------------|-------------------------|
D|-11----11----11-11----11-|----11----11-11-11-11----|
A|-9-----9-----9--9-----9--|----9-----9--9--9--9-----|
E|-10-10-10-10-10-10-10-10-|-10-10-10-10-10-10-10-10-|

   P.M.------------------------------------------
   1  &  2  &  3  &  4  &    1  &  2  &  3  &  4  &
e|-------------------------|-------------------------|
B|-------------------------|-------------------------|
G|-------------------------|-------------------------|
D|-11----11----11-11----11-|----11----11-11-11-11----|
A|-9-----9-----9--9-----9--|-9--9-----9--9--9--9-----|
E|-7--7--7--7--7--7--7--7--|-7--7--7--7--7--7--7--7\-|


   P.M.------------
   1  &  2  &  3  &  4  &   
e|-------------------------|
B|-------------------------|
G|-------------------------|
D|-7-----7-----7--7-----/--|
A|-5-----5-----5--5-----/--|
E|-3--3--3--3--3--3--3--/--|


   P.M.--------------------------------------------
   1  &  2  &  3  &  4  &    1  &  2  &  3  &  4  &
e|-------------------------|-------------------------|
B|-------------------------|-------------------------|
G|-------------------------|-------------------------|
D|-11----11----11-11----11-|----11----11-11-11-11----|
A|-9-----9-----9--9-----9--|----9-----9--9--9--9-----|
E|-7--7--7--7--7--7--7--7--|-7--7--7--7--7--7--7--7--|


Part 2: This is the second part of the intro and breakdown, play it 
once.
   1  &  2  &  3  &  4  &    1  &  2  &  3  &  4  &  
e|-------------------------|-------------------------|
B|-------------------------|-------------------------|
G|-------------------------|-------------------------|
D|-11----------------------|-11-------11----11-11----|
A|-9-----------------------|-9--------9-----9--9-----|
E|-10-------10-10-10-10-10-|-10-10-10-10-10-10-10-10-|


   1  &  2  &  3  &  4  &    1  &  2  &  3  &  4  &  
e|-------------------------|-------------------------|
B|-------------------------|-------------------------|
G|-------------------------|-------------------------|
D|-11----------------------|-11-------11----11-11--\-|
A|-9-----------------------|-9--------9-----9--9---\-|
E|-7--------7--7--7--7--7--|-7--7--7--7--7--7--7--7\-|


   1  &  2  &  3  &  4  &    
e|-------------------------|
B|-------------------------|
G|-------------------------|
D|-7---------------------/-|
A|-5---------------------/-|
E|-3--------3--3--3--3--3/-|


   1  &  2  &  3  &  4  &    1  &  2  &  3  &  4  &
e|-------------------------|-------------------------|
B|-------------------------|-------------------------|
G|-------------------------|-------------------------|
D|-11----11----11-11----11-|----11----11-11-11-11----|
A|-9-----9-----9--9-----9--|----9-----9--9--9--9-----|
E|-7--7--7--7--7--7--7--7--|-7--7--7--7--7--7--7--7--|

Part 3: First part of bridge("And I wonder..."), play twice.
   1  &  2  &  3  &  4  &    1  &  2  &  3  &  4  &   
e|-------------------------|-------------------------||
B|-------------------------|-------------------------|
G|-------------------------|-------------------------|
D|-0--------0--------0-----|----0--------0--------7--|
A|-4--4--4-/5--5--5--7--7--|-7-/9--9--9-/12-12-12-7--|
E|-------------------------|----------------------5--|

  1  &  2  &  3  &  4  &  
|-------------------------|
|-------------------------|
|-------------------------|
|----7--7--7--7--7--7--7--|
|----7--7--7--7--7--7--7--|
|----5--5--5--5--5--5--5--|

Part 4: second part of bridge/beginning of chorus, play once.
   1  &  2  &  3  &  4  &    1  &  2  &  3  &  4  &   
e|-------------------------|-------------------------|
B|-------------------------|-------------------------|
G|-------------------------|----------------------4--|
D|-0--------0--------0-----|----0--------0--------4--|
A|-4--4--4-/5--5--5--7--7--|-7-/9--9--9-/12-12-12-2--|
E|-------------------------|-------------------------|
                                                     
  1  &  2  &  3  &  4  &  
|-------------------------|
|-------------------------|
|----4--4--4--4--4--4--4--|
|----4--4--4--4--4--4--4--|
|----2--2--2--2--2--2--2--|
|-------------------------|
     If everything could ever

Part 5: Chorus: It would be a waste of my time and your printer 
paper to write this part out in tab, listen to the CD for timing.
Chords are written above the words when they are played.


Chords: A5-X022XX  D5-X577XX  G5-355XXX  B5-X244XX  D5*-10,00XXX 

D5*(Play this one with your thumb on the low E-string and your 
middle finger just touching the G-string to mute it in case you 
accidently strum it.  If that's to hard play it like this: 55XXXX).


 G5                D5* 
 be this real for ever.
 B5                     G5            D5*
    If anything could ever be this good again.
 B5                          G5           
    The only thing I'll ever ask of you:    
 D5                      A5                 G5
    gotta promise not to stop when I sayyya when...she said. 

Questions/comments/corrections e-mail me at mattveneklase@hotmail.com.

---------------------------------------------------------------------------

        Prev | Next | Inbox   - Choose Folder -[New Folder]   
    as attachmentinline text  Download Attachments  


            
            
Suggest correction
Creating personal tab
Creating personal tab
You can edit any tab online and save it as your Personal.

You can edit, replace or remove any tab part or add personal notes – all changes will be seen only by you.

Personal tabs can be accessed anytime from any device, even offline.
Learn more »
comments
print report bad tab
14 comments total. Showing first comments.
+1 reply
empty 10 Nov 16, 2001 07:00 PM

Shouldn't this be in dropped D tuning.

+1 reply
RedVexx 30 Feb 19, 2002 07:00 PM

yes it should

+1 reply
waiausk8er 10 Feb 20, 2002 07:00 PM

If you have the CD listen to it. It's dropped D tuning buddy...

guest
Wanna post a correction for this tab? Suggest correction