Oops, an error
Loading. Please wait.

Everlong Bass Tab

10,994 views 60 this week
5 commentsread comments
1 2 3 4 5
accurate
x 18
add to favorites
launch autoscroll
font size
0
reset
guitar tuner
Autoscroll
slow
fast
+/-
esc
set tempo
stop
Help us to improve Ultimate-Guitar.com Take our survey!
×
Author
Difficulty
Tuning
novice
D A D G B E
-------------------------------------------------------------------------------
			     EVERLONG - Foo Fighters
-------------------------------------------------------------------------------

Tabbed By : Reverend Zac Herbison
e-mail: herbyrulez@yahoo.com

Tuning: Drop D (DADG)

Full-band intro (0:21)

G|----------------|----------------|----------------|----------------|
D|----------------|----------------|----------------|----------------|
A|----5---5-5---5-|----5---5-5-5-5-|----------------|----------------|
D|0-0---0-----0---|0-0---0---------|9-9-9-9-9-9-9-9-|9-9-9-9-9-9-9-9-| 

G|----------------|----------------|----------------| 
D|----------------|----------------|----------------| 
A|----------------|----------------|----------------| 
D|5-5-5-5-5-5-5-5-|9-9-9-9-9-9-9-9-|9-9-9-9-9-9-9-9-|

Verse (0:32) 

G|----------------|----------------|----------------|----------------|
D|----------------|----------------|----------------|----------------|
A|----5---5-5---5-|----5---5-5-5-5-|----------------|----------------|
D|0-0---0-----0---|0-0---0---------|9-9-9-9-9-9-9-9-|9-9-9-9-9-9-9-9-| 

G|----------------|----------------|----------------| 
D|----------------|----------------|----------------| 
A|----------------|----------------|----------------| 
D|5-5-5-5-5-5-5-5-|9-9-9-9-9-9-9-9-|9-9-9-9-9-9-9-9-|

Pre-Chorus (1:25) 

G|----------------|----------------|----------------| 
D|----------------|----------------|----------------| 
A|----------------|----------------|----------------| 
D|0-0-0-0-0-0-0-0-|0-0-0-0-0-0-0-7-|--7-7---7-7-7---| 

G|----------------|----------------|----------------| 
D|----------------|----------------|----------------| 
A|----------------|----------------|----------------| 
D|0-0-0-0-0-0-0-0-|0-0-0-0-0-0-0-7-|--7-7---7-7-7---| 

G|----------------|----------------| 
D|----------------|----------------| 
A|----------------|----------------| 
D|0-0-0-0-0-0-0-0-|0-0-0-0-0-0-0-0-| 

Chorus (1:37) 

G|----------------|----------------|----------------|----------------|
D|----------------|----------------|----------------|----------------|
A|----------------|----------------|5---5-5---5-5-5-|5-5-5-5-5-5-5-5-|
D|9---9-9---9-9-9-|5---5-5---5-5-5-|----------------|----------------| 

G|----------------|----------------|----------------|----------------|
D|----------------|----------------|----------------|----------------|
A|----------------|----------------|5---5-5---5-5-5-|5-5-5-5-5-5-5-5-|
D|9---9-9---9-9-9-|5---5-5---5-5-5-|----------------|----------------| 
G|----------------|----------------|----------------|----------------|
D|----------------|----------------|----------------|----------------| 
A|----------------|----------------|5---5-5---5-5-5-|----------------| 
D|9---9-9---9-9-9-|5---5-5---5-5-5-|----------------|7---7-7---7-7-7-| 

G|----------------|----------------| 
D|----------------|----------------| 
A|----------------|----------------| 
D|5-5-5-5-5-5-5-5-|5-5-5-5-5-5-5-5-| 

Post-Chorus (1:58) 

G|----------------|----------------|----------------|----------------|
D|----------------|----------------|----------------|----------------|
A|----5---5-5---5-|----5---5-5-5-5-|----------------|----------------|
D|0-0---0-----0---|0-0---0---------|9-9-9-9-9-9-9-9-|9-9-9-9-9-9-9-9-| 

G|----------------|----------------|----------------| 
D|----------------|----------------|----------------| 
A|----------------|----------------|----------------| 
D|5-5-5-5-5-5-5-5-|9-9-9-9-9-9-9-9-|9-9-9-9-9-9-9-9-| 

Verse (2:09) 

G|----------------|----------------|----------------|----------------|
D|----------------|----------------|----------------|----------------|
A|----5---5-5---5-|----5---5-5-5-5-|----------------|----------------|
D|0-0---0-----0---|0-0---0---------|9-9-9-9-9-9-9-9-|9-9-9-9-9-9-9-9-| 

G|----------------|----------------|----------------| 
D|----------------|----------------|----------------| 
A|----------------|----------------|----------------| 
D|5-5-5-5-5-5-5-5-|9-9-9-9-9-9-9-9-|9-9-9-9-9-9-9-9-| 

Pre-Chorus (2:30) 

G|----------------|----------------|----------------| 
D|----------------|----------------|----------------| 
A|----------------|----------------|----------------| 
D|0-0-0-0-0-0-0-0-|0-0-0-0-0-0-0-7-|--7-7---7-7-7---| 

G|----------------|----------------|----------------| 
D|----------------|----------------|----------------| 
A|----------------|----------------|----------------| 
D|0-0-0-0-0-0-0-0-|0-0-0-0-0-0-0-7-|--7-7---7-7-7---| 

G|----------------|----------------| 
D|----------------|----------------| 
A|----------------|----------------| 
D|0-0-0-0-0-0-0-0-|0-0-0-0-0-0-0-0-| 

Chorus (2:42) 

G|----------------|----------------|----------------|----------------| 
D|----------------|----------------|----------------|----------------| 
A|----------------|----------------|5---5-5---5-5-5-|5-5-5-5-5-5-5-5-| 
D|9---9-9---9-9-9-|5---5-5---5-5-5-|----------------|----------------|
 
G|----------------|----------------|----------------|----------------| 
D|----------------|----------------|----------------|----------------| 
A|----------------|----------------|5---5-5---5-5-5-|5-5-5-5-5-5-5-5-| 
D|9---9-9---9-9-9-|5---5-5---5-5-5-|----------------|----------------| 

G|----------------|----------------|----------------|----------------| 
D|----------------|----------------|----------------|----------------| 
A|----------------|----------------|5---5-5---5-5-5-|----------------| 
D|9---9-9---9-9-9-|5---5-5---5-5-5-|----------------|7---7-7---7-7-7-| 

G|----------------|----------------| 
D|----------------|----------------| 
A|----------------|----------------| 
D|5-5-5-5-5-5-5-5-|5-5-5-5-5-5-5-5-| 

Bridge - no bass until 3:20 (last three bars of bridge) 

G|----------------|----------------|----------------| 
D|----------------|----------------|----------------| 
A|----------------|----------------|----------------| 
D|5-5-5-5-5-5-5-5-|9-9-9-9-9-9-9-9-|9-9-9-9-9-9-9-9-| 

Pre-Chorus (3:25) 

G|----------------| 
D|----------------| 
A|----------------| 
D|0-0-0-0-0-0-0-0-| 

Chorus (3:34) 

G|----------------|----------------|----------------|----------------| 
D|----------------|----------------|----------------|----------------| 
A|----------------|----------------|5---5-5---5-5-5-|5-5-5-5-5-5-5-5-| 
D|9---9-9---9-9-9-|5---5-5---5-5-5-|----------------|----------------|
 
G|----------------|----------------|----------------|----------------| 
D|----------------|----------------|----------------|----------------| 
A|----------------|----------------|5---5-5---5-5-5-|5-5-5-5-5-5-5-5-| 
D|9---9-9---9-9-9-|5---5-5---5-5-5-|----------------|----------------|
 
G|----------------|----------------|----------------|----------------| 
D|----------------|----------------|----------------|----------------| 
A|----------------|----------------|5---5-5---5-5-5-|----------------| 
D|9---9-9---9-9-9-|5---5-5---5-5-5-|----------------|7---7-7---7-7-7-|
 
G|----------------|----------------|----------------|----------------| 
D|----------------|----------------|----------------|----------------| 
A|----------------|----------------|----------------|----------------| 
D|5-5-5-5-5-5-5-5-|5-5-5-5-5-5-5-5-|5-5-5-5-5-5-5-5-|5-5-5-5-5-5-0---|
 
G|----------------|----------------|----------------|----------------| 
D|----------------|----------------|----------------|----------------| 
A|----------------|----------------|----------------|----------------| 
D|12--------------|----------------|----------------|----------------|


| /  slide up
| \  slide down
| h  hammer-on
| p  pull-off
| ~  vibrato
| +  harmonic
| x  Mute note
===============================================================================
Suggest correction
comments
print report bad tab
5 comments total. Showing first comments.
0 reply
Sparky22 346 wrote on May 24 2013, 04:41 pm

9's on the a string shouldn't be there. Should be a D note, either open low D, A string 5th fret or D string 12th fret. Otherwise, it's spot on.

+2 reply
J8K8 714 wrote on July 30 2014, 08:59 am

This one is spot on! I checked every note by listening to the bass master track on Youtube. Not a single note missing. Congratulations!

+1 reply
beefjerkey02 10 wrote on September 7 2014, 09:44 pm

i prefer 2's instead of 9's before the repeated fives.

guest
You may want to rate the tab now too:
select rating
Please do not post tabs as comments. Select "correction" instead!