Oops, an error
Loading. Please wait.
We have an official Everlong tab made by UG professional guitarists. Check out the tab »
×

Everlong tab

version 14
version 14

Whole song

Video

7,948 views 1,281 this week
no commentswrite comment
1 2 3 4 5
x 4
add to favorites
×
Save as Personal and add changes to this tab that will be seen only by you. Learn more ›
×
You can save this tab as Personal to edit and correct it or add notes. All changes will be seen only by you. Learn more »
launch autoscroll
font size
0
reset
how to read this tab
guitar tuner
backing track
0:00
0:00
edit
Autoscroll
slow
fast
+/-
esc
set tempo
stop
About this tab version
This version is more accurate than the others. I might add a youtube video where I play the song, so you can hear the whole rythm. Was this info helpful? Yes No
Artist: Foo Fighters
Song: Everlong
Tabbed by Shigewara (AGSNOR tabs akselst@hotmail.com)
Based on this link: https://www.youtube.com/watch?v=AAMgHB-1_Fo


Tuning: Drop D
No capo


        Intro (and verse is the same)
E|-----------------------------------------------------------|
B|-----------------------------------------------------------|
G|-----------------------------------------------------------|
D|-----11---11-11---11-----11---11-11-11---------------------|
A|-----9----9--9----9------9----9--9--9----------------------|
d|-0-0----0-------0----0-0----0------------------------------|

E|-----------------------------------------------------------|
B|-----------------------------------------------------------|
G|-----------------------------------------------------------|
D|-----11---11-11---11-----11---11-11-11---------------------|
A|-----9----9--9----9------9----9--9--9----------------------|
d|-9-9----9-------9----9-9----9------------------------------|

E|-----------------------------------------------------------|
B|-----------------------------------------------------------|
G|-----------------------------------------------------------|
D|-----7-7-----7-------11-11-----11-----11-----11-----11-11--|
A|-----5 5-----5-------9--9------9------9------9------9--9---|
d|-5-5-----5-5---5-9-9-------9-9----9-9----9-9----9-9--------|



        Pre Chorus
E|-----------------------------------------------------------|
B|-----------------------------------------------------------|
G|-6-6-6-7-7-7-9-9-9-11-11-11-11/12/11-----------------------|
D|-----------------------------------------------------------|
A|-4-4-4-5-5-5-7-7-7-9--9--9--9/10/9-------7-7-7-7-7-7-7-----|
d|-----------------------------------------7-7-7-7-7-7-7-----| X2

E|-----------------------------------------------------------|
B|-----------------------------------------------------------|
G|-6-6-6-7-7-7-9-9-9-11-11-11-11/12/11-----------------------|
D|-----------------------------------------------------------|
A|-4-4-4-5-5-5-7-7-7-9--9--9--9/10/9-------------------------|
d|-----------------------------------------------------------|



        Chorus
E|------------------------------------------------------------------|
B|------------------------------------------------------------------|
G|---------------------------------7-x-7-7--7-7-7--7-7-7--7---7-----|
D|---------------------------------7-x-7-7--7-7-7--7-7-7--7---7-----|
A|-9---9-9-x-9-9-x-5---5-5-x-5-5-x-5-x-5-5--5-5-5--5-5-5--5---5-----|
d|-9---9-9-x-9-9-x-5---5-5-x-5-5-x----------------------------------| X2

E|------------------------------------------------------------------|
B|------------------------------------------------------------------|
G|---------------------------------7-x-7-7--7-7-7-------------------|
D|---------------------------------7-x-7-7--7-7-7-------------------|
A|-9---9-9-x-9-9-x-5---5-5-x-5-5-x-5-x-5-5--5-5-5-7---7-7-x-7-7-x---|
d|-9---9-9-x-9-9-x-5---5-5-x-5-5-x----------------7---7-7-x-7-7-x---| X2

E|------------------------------------------------------------------|
B|------------------------------------------------------------------|
G|------------------------------------------------------------------|
D|------------------------------------------------------------------|
A|-5-5-5-5-5-5-5-5-5-5-5-5-5-5-5-5----------------------------------|
d|-5-5-5-5-5-5-5-5-5-5-5-5-5-5-5-5----------------------------------|



  In the last chorus end with this line instead
E|--------------------------------------------|
B|--------------------------------------------|
G|--------------------------------------------|
D|--------------------------------------11~---|
A|-5-5-5-5-5-5-5-5-5-5-5-5-5-5-5-5------9~----|
D|-5-5-5-5-5-5-5-5-5-5-5-5-5-5-5-5------0~----|



Hello, I've waited here for you
Everlong
Tonight, I throw myself into
And out of the red
Out of her head, she sang
Come down, and waste away with me
Down with me
Slow how you wanted it to be
And over my head, out of her head she sang

And I wonder when I sing along with you

If everything could ever feel this real forever
If anything could ever be this good again
The only thing I'll ever ask of you
You've got to promise not to stop when I say when
She sang

Breathe out, so I can breathe you in
Hold you in
And now I know you've always been
And out of your head, out of my head I sang

And I wonder when I sing along with you

If everything could ever feel this real forever
If anything could ever be this good again
The only thing I'll ever ask of you
You've got to promise not to stop when I say when
She sang

And I wonder...

If everything could ever feel this real forever
If anything could ever be this good again
The only thing I'll ever ask of you
You've got to promise not to stop when I say when
She sang



This is how I think Everlong is played accurately. I hope it's all right. Good luck, and have fun!

            
            
Suggest correction
Creating personal tab
Creating personal tab
You can edit any tab online and save it as your Personal.

You can edit, replace or remove any tab part or add personal notes – all changes will be seen only by you.

Personal tabs can be accessed anytime from any device, even offline.
Learn more »
comments
print report bad tab
guest
You may want to rate the tab now too:
select rating
Wanna post a correction for this tab? Suggest correction