Oops, an error
Loading. Please wait.
We have an official Everlong tab made by UG professional guitarists. Check out the tab »
×

Everlong tab

version 15
version 15

Whole song

Video

163 views 9 this week
no commentswrite comment
1 2 3 4 5
2 more votes to show rating
add to favorites
×
Save as Personal and add changes to this tab that will be seen only by you. Learn more ›
×
You can save this tab as Personal to edit and correct it or add notes. All changes will be seen only by you. Learn more »
launch autoscroll
font size
0
reset
how to read this tab
guitar tuner
backing track
0:00
0:00
edit
Autoscroll
slow
fast
+/-
esc
set tempo
stop
About this tab version
Both guitar parts to Everlong by the Foo Fighters. The intro, interludes, and bridge section have two different parts that are played at the same time on different guitars. The verses, pre chorus's, and chorus's are the same part being played on two different guitars at the same time. Was this info helpful? Yes No
[Intro, Guitar 1]
e|-----------------------|------------------------|
B|-----------------------|------------------------|
G|-----------------------|------------------------|
D|------11---11-11---11--|----11-----11-11-11-11--|
A|------9----9--9----9---|----9------9--9--9--9---|
D|--0-0----0-------0-----|--0----0-0--------------|

e|-----------------------|------------------------|
B|-----------------------|------------------------|
G|-----------------------|------------------------|
D|------11---11-11---11--|----11-----11-11-11-11--|
A|------9----9--9----9---|----9------9--9--9--9---|
D|--9-9----9-------9-----|--9----9-9--------------|

e|-------------------|
B|-------------------|
G|-------------------|
D|------7-7-----7-7--|
A|------5-5-----5-5--|
D|--5-5-5-5-5-5-5-5--|

e|-----------------------|------------------------|
B|-----------------------|------------------------|
G|-----------------------|------------------------|
D|------11---11-11---11--|----11-----11-11-11-11--|
A|------9----9--9----9---|----9------9--9--9--9---|
D|--9-9----9-------9-----|--9----9-9--------------|

e|-----------------------|------------------------|
B|-----------------------|------------------------|
G|-----------------------|------------------------|
D|------11---11-11---11--|----11-----11-11-11-11--|
A|------9----9--9----9---|----9------9--9--9--9---|
D|--0-0----0-------0-----|--0----0-0--------------|

e|-----------------------|------------------------|
B|-----------------------|------------------------|
G|-----------------------|------------------------|
D|------11---11-11---11--|----11-----11-11-11-11--|
A|------9----9--9----9---|----9------9--9--9--9---|
D|--9-9----9-------9-----|--9----9-9--------------|

e|-------------------|
B|-------------------|
G|-------------------|
D|------7-7-----7-7--|
A|------5-5-----5-5--|
D|--5-5-5-5-5-5-5-5--|

e|-----------------------|------------------------|
B|-----------------------|------------------------|
G|-----------------------|------------------------|
D|------11---11-11---11--|----11-----11-11-11-11--|
A|------9----9--9----9---|----9------9--9--9--9---|
D|--9-9----9-------9-----|--9----9-9--------------|

[Intro Guitar 2]
e|-----------------------|------------------------|
B|-----------------------|------------------------|
G|-----------------------|------------------------|
D|-----------------------|------------------------|
A|-----------------------|------------------------|
D|-----------------------|------------------------|

e|-----------------------|------------------------|
B|-----------------------|------------------------|
G|-----------------------|------------------------|
D|-----------------------|------------------------|
A|-----------------------|------------------------|
D|-----------------------|------------------------|

e|-------------------|
B|-------------------|
G|-------------------|
D|-------------------|
A|-------------------|
D|-------------------|

e|-----------------------|------------------------|
B|-----------------------|------------------------|
G|-----------------------|------------------------|
D|-----------------------|------------------------|
A|-----------------------|------------------------|
D|-----------------------|------------------------|

e|-----------------------|------------------------|
B|-----------------------|------------------------|
G|-----------------------|------------------------|
D|--11v------------------|--------------------11--|
A|--9v-------------------|--------------------9---|
D|--0--------------------|--------------------0---|

e|-----------------------|------------------------|
B|-----------------------|------------------------|
G|-----------------------|------------------------|
D|--11v------------------|--------------------11--|
A|--9v-------------------|--------------------9---|
D|--9v-------------------|--------------------9---|

e|-------------------|
B|-------------------|
G|-------------------|
D|--7v------------7--|
A|--5v------------5--|
D|--5v------------5--|

e|---------------------------|---------------------------|
B|---------------------------|---------------------------|
G|---------------------------|---------------------------|
D|--11v---------11-11-11-11--|--11-11-11-11-11-11-11-11--|
A|--9v----------9--9--9--9---|--9--9--9--9--9--9--9--9---|
D|--9v----------9--9--9--9---|--9--9--9--9--9--9--9--9---|

[Interlude 1, Guitar 1]
e|-----------------------|------------------------|
B|-----------------------|------------------------|
G|-----------------------|------------------------|
D|------11---11-11---11--|----11-----11-11-11-11--|
A|--9-9-9--9-9--9--9-9---|--9-9--9-9-9--9--9--9---|
D|--0-0-0--0-0--0--0-0---|--0-0--0-0-0--0--0--0---|

e|-----------------------|------------------------|
B|-----------------------|------------------------|
G|-----------------------|------------------------|
D|------11---11-11---11--|----11-----11-11-11-11--|
A|--9-9-9--9-9--9--9-9---|--9-9--9-9-9--9--9--9---|
D|--9-9-9--9-9--9--9-9---|--9-9--9-9-9--9--9--9---|

e|-------------------|
B|-------------------|
G|-------------------|
D|------7-7-----7-7--|
A|--5-5-5-5-5-5-5-5--|
D|--5-5-5-5-5-5-5-5--|

e|-----------------------|------------------------|
B|-----------------------|------------------------|
G|-----------------------|------------------------|
D|------11---11-11---11--|----11-----11-11-11-11--|
A|--9-9-9--9-9--9--9-9---|--9-9--9-9-9--9--9--9---|
D|--9-9-9--9-9--9--9-9---|--9-9--9-9-9--9--9--9---|

[Interlude 1, Guitar 2]
e|---------------|------------------|
B|---------------|------------------|
G|--9--9--9--9---|--9--9--9--11-9---|
D|--11-11-11-11--|--11-11-11-11-11--|
A|--9--9--9--9---|--9--9--9--9--9---|
D|---------------|------------------|

e|---------------|------------------|
B|---------------|------------------|
G|--9--9--9--9---|--9--9--9--11-9---|
D|--11-11-11-11--|--11-11-11-11-11--|
A|--9--9--9--9---|--9--9--9--9--9---|
D|---------------|------------------|

e|-----------|
B|-----------|
G|--6-6-6-6--|
D|--7-7-7-7--|
A|--5-5-5-5--|
D|-----------|

e|---------------|------------------|
B|---------------|------------------|
G|--9--9--9--9---|--9--9--9--11-9---|
D|--11-11-11-11--|--11-11-11-11-11--|
A|--9--9--9--9---|--9--9--9--9--9---|
D|---------------|------------------|

[Verse 1, Guitars 1 & 2]
e|-----------------------|------------------------|
B|-----------------------|------------------------|
G|-----------------------|------------------------|
D|------11---11-11---11--|----11-----11-11-11-11--|
A|--9-9-9--9-9--9--9-9---|--9-9--9-9-9--9--9--9---|
D|--0-0-0--0-0--0--0-0---|--0-0--0-0-0--0--0--0---|

e|-----------------------|------------------------|
B|-----------------------|------------------------|
G|-----------------------|------------------------|
D|------11---11-11---11--|----11-----11-11-11-11--|
A|--9-9-9--9-9--9--9-9---|--9-9--9-9-9--9--9--9---|
D|--9-9-9--9-9--9--9-9---|--9-9--9-9-9--9--9--9---|

e|-------------------|
B|-------------------|
G|-------------------|
D|------7-7-----7-7--|
A|--5-5-5-5-5-5-5-5--|
D|--5-5-5-5-5-5-5-5--|

e|-----------------------|------------------------|
B|-----------------------|------------------------|
G|-----------------------|------------------------|
D|------11---11-11---11--|----11-----11-11-11-11--|
A|--9-9-9--9-9--9--9-9---|--9-9--9-9-9--9--9--9---|
D|--9-9-9--9-9--9--9-9---|--9-9--9-9-9--9--9--9---|

e|-----------------------|------------------------|
B|-----------------------|------------------------|
G|-----------------------|------------------------|
D|------11---11-11---11--|----11-----11-11-11-11--|
A|--9-9-9--9-9--9--9-9---|--9-9--9-9-9--9--9--9---|
D|--0-0-0--0-0--0--0-0---|--0-0--0-0-0--0--0--0---|

e|-----------------------|------------------------|
B|-----------------------|------------------------|
G|-----------------------|------------------------|
D|------11---11-11---11--|----11-----11-11-11-11--|
A|--9-9-9--9-9--9--9-9---|--9-9--9-9-9--9--9--9---|
D|--9-9-9--9-9--9--9-9---|--9-9--9-9-9--9--9--9---|

e|-------------------|
B|-------------------|
G|-------------------|
D|------7-7-----7-7--|
A|--5-5-5-5-5-5-5-5--|
D|--5-5-5-5-5-5-5-5--|

e|-----------------------|------------------------|
B|-----------------------|------------------------|
G|-----------------------|------------------------|
D|------11---11-11---11--|----11-----11-11-11-11--|
A|--9-9-9--9-9--9--9-9---|--9-9--9-9-9--9--9--9---|
D|--9-9-9--9-9--9--9-9---|--9-9--9-9-9--9--9--9---|

[Interlude 2, Guitar 1]
e|-----------------------|------------------------|
B|-----------------------|------------------------|
G|-----------------------|------------------------|
D|------11---11-11---11--|----11-----11-11-11-11--|
A|--9-9-9--9-9--9--9-9---|--9-9--9-9-9--9--9--9---|
D|--0-0-0--0-0--0--0-0---|--0-0--0-0-0--0--0--0---|

e|-----------------------|------------------------|
B|-----------------------|------------------------|
G|-----------------------|------------------------|
D|------11---11-11---11--|----11-----11-11-11-11--|
A|--9-9-9--9-9--9--9-9---|--9-9--9-9-9--9--9--9---|
D|--9-9-9--9-9--9--9-9---|--9-9--9-9-9--9--9--9---|

e|-------------------|
B|-------------------|
G|-------------------|
D|------7-7-----7-7--|
A|--5-5-5-5-5-5-5-5--|
D|--5-5-5-5-5-5-5-5--|

e|-----------------------|------------------------|
B|-----------------------|------------------------|
G|-----------------------|------------------------|
D|------11---11-11---11--|----11-----11-11-11-11--|
A|--9-9-9--9-9--9--9-9---|--9-9--9-9-9--9--9--9---|
D|--9-9-9--9-9--9--9-9---|--9-9--9-9-9--9--9--9---|

[Interlude 2, Guitar 2]
e|---------------|------------------|
B|---------------|------------------|
G|--9--9--9--9---|--9--9--9--11-9---|
D|--11-11-11-11--|--11-11-11-11-11--|
A|--9--9--9--9---|--9--9--9--9--9---|
D|---------------|------------------|

e|---------------|------------------|
B|---------------|------------------|
G|--9--9--9--9---|--9--9--9--11-9---|
D|--11-11-11-11--|--11-11-11-11-11--|
A|--9--9--9--9---|--9--9--9--9--9---|
D|---------------|------------------|

e|-----------|
B|-----------|
G|--6-6-6-6--|
D|--7-7-7-7--|
A|--5-5-5-5--|
D|-----------|

e|---------------|------------------|
B|---------------|------------------|
G|--9--9--9--9---|--9--9--9--11-9---|
D|--11-11-11-11--|--11-11-11-11-11--|
A|--9--9--9--9---|--9--9--9--9--9---|
D|---------------|------------------|

[Verse 2, Guitars 1 & 2]
e|-----------------------|------------------------|
B|-----------------------|------------------------|
G|-----------------------|------------------------|
D|------11---11-11---11--|----11-----11-11-11-11--|
A|--9-9-9--9-9--9--9-9---|--9-9--9-9-9--9--9--9---|
D|--0-0-0--0-0--0--0-0---|--0-0--0-0-0--0--0--0---|

e|-----------------------|------------------------|
B|-----------------------|------------------------|
G|-----------------------|------------------------|
D|------11---11-11---11--|----11-----11-11-11-11--|
A|--9-9-9--9-9--9--9-9---|--9-9--9-9-9--9--9--9---|
D|--9-9-9--9-9--9--9-9---|--9-9--9-9-9--9--9--9---|

e|-------------------|
B|-------------------|
G|-------------------|
D|------7-7-----7-7--|
A|--5-5-5-5-5-5-5-5--|
D|--5-5-5-5-5-5-5-5--|

e|-----------------------|------------------------|
B|-----------------------|------------------------|
G|-----------------------|------------------------|
D|------11---11-11---11--|----11-----11-11-11-11--|
A|--9-9-9--9-9--9--9-9---|--9-9--9-9-9--9--9--9---|
D|--9-9-9--9-9--9--9-9---|--9-9--9-9-9--9--9--9---|

e|-----------------------|------------------------|
B|-----------------------|------------------------|
G|-----------------------|------------------------|
D|------11---11-11---11--|----11-----11-11-11-11--|
A|--9-9-9--9-9--9--9-9---|--9-9--9-9-9--9--9--9---|
D|--0-0-0--0-0--0--0-0---|--0-0--0-0-0--0--0--0---|

e|-----------------------|------------------------|
B|-----------------------|------------------------|
G|-----------------------|------------------------|
D|------11---11-11---11--|----11-----11-11-11-11--|
A|--9-9-9--9-9--9--9-9---|--9-9--9-9-9--9--9--9---|
D|--9-9-9--9-9--9--9-9---|--9-9--9-9-9--9--9--9---|

e|-------------------|
B|-------------------|
G|-------------------|
D|------7-7-----7-7--|
A|--5-5-5-5-5-5-5-5--|
D|--5-5-5-5-5-5-5-5--|

e|-----------------------|------------------------|
B|-----------------------|------------------------|
G|-----------------------|------------------------|
D|------11---11-11---11--|----11-----11-11-11-11--|
A|--9-9-9--9-9--9--9-9---|--9-9--9-9-9--9--9--9---|
D|--9-9-9--9-9--9--9-9---|--9-9--9-9-9--9--9--9---|

[Pre Chorus 1, Guitars 1 & 2]
e|---------------------|---------------------|
B|---------------------|---------------------|
G|--6-6-6-7-7-7-9-9-9--|--11-11-11-12-12-12--|
D|--0-0-0-0-0-0-0-0-0--|--0--0--0--0--0--0---|
A|--4-4-4-5-5-5-7-7-7--|--9--9--9--10-10-10--|
D|--0-0-0-0-0-0-0-0-0--|--0--0--0--0--0--0---|

e|---------------|
B|---------------|
G|--9-9-9-9-9-9--|
D|--7-7-7-7-7-7--|
A|--7-7-7-7-7-7--|
D|--7-7-7-7-7-7--|

e|---------------------|---------------------|
B|---------------------|---------------------|
G|--6-6-6-7-7-7-9-9-9--|--11-11-11-12-12-12--|
D|--0-0-0-0-0-0-0-0-0--|--0--0--0--0--0--0---|
A|--4-4-4-5-5-5-7-7-7--|--9--9--9--10-10-10--|
D|--0-0-0-0-0-0-0-0-0--|--0--0--0--0--0--0---|

e|---------------|
B|---------------|
G|--9-9-9-9-9-9--|
D|--7-7-7-7-7-7--|
A|--7-7-7-7-7-7--|
D|--7-7-7-7-7-7--|

e|---------------------|---------------------|
B|---------------------|---------------------|
G|--6-6-6-7-7-7-9-9-9--|--11-11-11-12-12-12--|
D|--0-0-0-0-0-0-0-0-0--|--0--0--0--0--0--0---|
A|--4-4-4-5-5-5-7-7-7--|--9--9--9--10-10-10--|
D|--0-0-0-0-0-0-0-0-0--|--0--0--0--0--0--0---|

[Chorus 1, Guitars 1 & 2]
e|---------------------|---------------|
B|---------------------|---------------|
G|--11-11-11-11-11-11--|--7-7-7-7-7-7--|
D|--9--9--9--9--9--11--|--5-5-5-5-5-5--|
A|--9--9--9--9--9--9---|--5-5-5-5-5-5--|
D|--9--9--9--9--9--9---|--5-5-5-5-5-5--|

e|---------------|---------------|
B|---------------|---------------|
G|--7-7-7-7-7-7--|--7-7-7-7-7-7--|
D|--0-0-0-0-0-0--|--0-0-0-0-0-0--|
A|--5-5-5-5-5-5--|--5-5-5-5-5-5--|
D|--0-0-0-0-0-0--|--0-0-0-0-0-0--|

e|---------------------|---------------|
B|---------------------|---------------|
G|--11-11-11-11-11-11--|--7-7-7-7-7-7--|
D|--9--9--9--9--9--11--|--5-5-5-5-5-5--|
A|--9--9--9--9--9--9---|--5-5-5-5-5-5--|
D|--9--9--9--9--9--9---|--5-5-5-5-5-5--|

e|---------------|---------------|
B|---------------|---------------|
G|--7-7-7-7-7-7--|--7-7-7-7-7-7--|
D|--0-0-0-0-0-0--|--0-0-0-0-0-0--|
A|--5-5-5-5-5-5--|--5-5-5-5-5-5--|
D|--0-0-0-0-0-0--|--0-0-0-0-0-0--|

e|---------------------|---------------|
B|---------------------|---------------|
G|--11-11-11-11-11-11--|--7-7-7-7-7-7--|
D|--9--9--9--9--9--11--|--5-5-5-5-5-5--|
A|--9--9--9--9--9--9---|--5-5-5-5-5-5--|
D|--9--9--9--9--9--9---|--5-5-5-5-5-5--|

e|---------------|---------------|
B|---------------|---------------|
G|--7-7-7-7-7-7--|--9-9-9-9-9-9--|
D|--0-0-0-0-0-0--|--7-7-7-7-7-7--|
A|--5-5-5-5-5-5--|--7-7-7-7-7-7--|
D|--0-0-0-0-0-0--|--7-7-7-7-7-7--|

e|---------------|---------------|
B|---------------|---------------|
G|--7-7-7-7-7-7--|--7-7-7-7-7-7--|
D|--5-5-5-5-5-5--|--5-5-5-5-5-5--|
A|--5-5-5-5-5-5--|--5-5-5-5-5-5--|
D|--5-5-5-5-5-5--|--5-5-5-5-5-5--|

[Interlude 3, Guitar 1]
e|-----------------------|------------------------|
B|-----------------------|------------------------|
G|-----------------------|------------------------|
D|------11---11-11---11--|----11-----11-11-11-11--|
A|--9-9-9--9-9--9--9-9---|--9-9--9-9-9--9--9--9---|
D|--0-0-0--0-0--0--0-0---|--0-0--0-0-0--0--0--0---|

e|-----------------------|------------------------|
B|-----------------------|------------------------|
G|-----------------------|------------------------|
D|------11---11-11---11--|----11-----11-11-11-11--|
A|--9-9-9--9-9--9--9-9---|--9-9--9-9-9--9--9--9---|
D|--9-9-9--9-9--9--9-9---|--9-9--9-9-9--9--9--9---|

e|-------------------|
B|-------------------|
G|-------------------|
D|------7-7-----7-7--|
A|--5-5-5-5-5-5-5-5--|
D|--5-5-5-5-5-5-5-5--|

e|-----------------------|------------------------|
B|-----------------------|------------------------|
G|-----------------------|------------------------|
D|------11---11-11---11--|----11-----11-11-11-11--|
A|--9-9-9--9-9--9--9-9---|--9-9--9-9-9--9--9--9---|
D|--9-9-9--9-9--9--9-9---|--9-9--9-9-9--9--9--9---|

[Interlude 3, Guitar 2]
e|---------------|------------------|
B|---------------|------------------|
G|--9--9--9--9---|--9--9--9--11-9---|
D|--11-11-11-11--|--11-11-11-11-11--|
A|--9--9--9--9---|--9--9--9--9--9---|
D|---------------|------------------|

e|---------------|------------------|
B|---------------|------------------|
G|--9--9--9--9---|--9--9--9--11-9---|
D|--11-11-11-11--|--11-11-11-11-11--|
A|--9--9--9--9---|--9--9--9--9--9---|
D|---------------|------------------|

e|-----------|
B|-----------|
G|--6-6-6-6--|
D|--7-7-7-7--|
A|--5-5-5-5--|
D|-----------|

e|---------------|------------------|
B|---------------|------------------|
G|--9--9--9--9---|--9--9--9--11-9---|
D|--11-11-11-11--|--11-11-11-11-11--|
A|--9--9--9--9---|--9--9--9--9--9---|
D|---------------|------------------|

[Verse 3, Guitars 1 & 2]
e|-----------------------|------------------------|
B|-----------------------|------------------------|
G|-----------------------|------------------------|
D|------11---11-11---11--|----11-----11-11-11-11--|
A|--9-9-9--9-9--9--9-9---|--9-9--9-9-9--9--9--9---|
D|--0-0-0--0-0--0--0-0---|--0-0--0-0-0--0--0--0---|

e|-----------------------|------------------------|
B|-----------------------|------------------------|
G|-----------------------|------------------------|
D|------11---11-11---11--|----11-----11-11-11-11--|
A|--9-9-9--9-9--9--9-9---|--9-9--9-9-9--9--9--9---|
D|--9-9-9--9-9--9--9-9---|--9-9--9-9-9--9--9--9---|

e|-------------------|
B|-------------------|
G|-------------------|
D|------7-7-----7-7--|
A|--5-5-5-5-5-5-5-5--|
D|--5-5-5-5-5-5-5-5--|

e|-----------------------|------------------------|
B|-----------------------|------------------------|
G|-----------------------|------------------------|
D|------11---11-11---11--|----11-----11-11-11-11--|
A|--9-9-9--9-9--9--9-9---|--9-9--9-9-9--9--9--9---|
D|--9-9-9--9-9--9--9-9---|--9-9--9-9-9--9--9--9---|

e|-----------------------|------------------------|
B|-----------------------|------------------------|
G|-----------------------|------------------------|
D|------11---11-11---11--|----11-----11-11-11-11--|
A|--9-9-9--9-9--9--9-9---|--9-9--9-9-9--9--9--9---|
D|--0-0-0--0-0--0--0-0---|--0-0--0-0-0--0--0--0---|

e|-----------------------|------------------------|
B|-----------------------|------------------------|
G|-----------------------|------------------------|
D|------11---11-11---11--|----11-----11-11-11-11--|
A|--9-9-9--9-9--9--9-9---|--9-9--9-9-9--9--9--9---|
D|--9-9-9--9-9--9--9-9---|--9-9--9-9-9--9--9--9---|

e|-------------------|
B|-------------------|
G|-------------------|
D|------7-7-----7-7--|
A|--5-5-5-5-5-5-5-5--|
D|--5-5-5-5-5-5-5-5--|

e|-----------------------|------------------------|
B|-----------------------|------------------------|
G|-----------------------|------------------------|
D|------11---11-11---11--|----11-----11-11-11-11--|
A|--9-9-9--9-9--9--9-9---|--9-9--9-9-9--9--9--9---|
D|--9-9-9--9-9--9--9-9---|--9-9--9-9-9--9--9--9---|

[Pre Chorus 2, Guitars 1 & 2]
e|---------------------|---------------------|
B|---------------------|---------------------|
G|--6-6-6-7-7-7-9-9-9--|--11-11-11-12-12-12--|
D|--0-0-0-0-0-0-0-0-0--|--0--0--0--0--0--0---|
A|--4-4-4-5-5-5-7-7-7--|--9--9--9--10-10-10--|
D|--0-0-0-0-0-0-0-0-0--|--0--0--0--0--0--0---|

e|---------------|
B|---------------|
G|--9-9-9-9-9-9--|
D|--7-7-7-7-7-7--|
A|--7-7-7-7-7-7--|
D|--7-7-7-7-7-7--|

e|---------------------|---------------------|
B|---------------------|---------------------|
G|--6-6-6-7-7-7-9-9-9--|--11-11-11-12-12-12--|
D|--0-0-0-0-0-0-0-0-0--|--0--0--0--0--0--0---|
A|--4-4-4-5-5-5-7-7-7--|--9--9--9--10-10-10--|
D|--0-0-0-0-0-0-0-0-0--|--0--0--0--0--0--0---|

e|---------------|
B|---------------|
G|--9-9-9-9-9-9--|
D|--7-7-7-7-7-7--|
A|--7-7-7-7-7-7--|
D|--7-7-7-7-7-7--|

e|---------------------|---------------------|
B|---------------------|---------------------|
G|--6-6-6-7-7-7-9-9-9--|--11-11-11-12-12-12--|
D|--0-0-0-0-0-0-0-0-0--|--0--0--0--0--0--0---|
A|--4-4-4-5-5-5-7-7-7--|--9--9--9--10-10-10--|
D|--0-0-0-0-0-0-0-0-0--|--0--0--0--0--0--0---|

[Chorus 2, Guitars 1 & 2]
e|---------------------|---------------|
B|---------------------|---------------|
G|--11-11-11-11-11-11--|--7-7-7-7-7-7--|
D|--9--9--9--9--9--11--|--5-5-5-5-5-5--|
A|--9--9--9--9--9--9---|--5-5-5-5-5-5--|
D|--9--9--9--9--9--9---|--5-5-5-5-5-5--|

e|---------------|---------------|
B|---------------|---------------|
G|--7-7-7-7-7-7--|--7-7-7-7-7-7--|
D|--0-0-0-0-0-0--|--0-0-0-0-0-0--|
A|--5-5-5-5-5-5--|--5-5-5-5-5-5--|
D|--0-0-0-0-0-0--|--0-0-0-0-0-0--|

e|---------------------|---------------|
B|---------------------|---------------|
G|--11-11-11-11-11-11--|--7-7-7-7-7-7--|
D|--9--9--9--9--9--11--|--5-5-5-5-5-5--|
A|--9--9--9--9--9--9---|--5-5-5-5-5-5--|
D|--9--9--9--9--9--9---|--5-5-5-5-5-5--|

e|---------------|---------------|
B|---------------|---------------|
G|--7-7-7-7-7-7--|--7-7-7-7-7-7--|
D|--0-0-0-0-0-0--|--0-0-0-0-0-0--|
A|--5-5-5-5-5-5--|--5-5-5-5-5-5--|
D|--0-0-0-0-0-0--|--0-0-0-0-0-0--|

e|---------------------|---------------|
B|---------------------|---------------|
G|--11-11-11-11-11-11--|--7-7-7-7-7-7--|
D|--9--9--9--9--9--11--|--5-5-5-5-5-5--|
A|--9--9--9--9--9--9---|--5-5-5-5-5-5--|
D|--9--9--9--9--9--9---|--5-5-5-5-5-5--|

e|---------------|---------------|
B|---------------|---------------|
G|--7-7-7-7-7-7--|--9-9-9-9-9-9--|
D|--0-0-0-0-0-0--|--7-7-7-7-7-7--|
A|--5-5-5-5-5-5--|--7-7-7-7-7-7--|
D|--0-0-0-0-0-0--|--7-7-7-7-7-7--|

e|---------------|---------------|
B|---------------|---------------|
G|--7-7-7-7-7-7--|--7-7-7-7-7-7--|
D|--5-5-5-5-5-5--|--5-5-5-5-5-5--|
A|--5-5-5-5-5-5--|--5-5-5-5-5-5--|
D|--5-5-5-5-5-5--|--5-5-5-5-5-5--|

[Bridge, Guitar 1]
e|-----------------------|------------------------|
B|-----------------------|------------------------|
G|-----------------------|------------------------|
D|------11---11-11---11--|----11-----11-11-11-11--|
A|------9----9--9----9---|----9------9--9--9--9---|
D|--0-0----0-------0-----|--0----0-0--------------|

e|-----------------------|------------------------|
B|-----------------------|------------------------|
G|-----------------------|------------------------|
D|------11---11-11---11--|----11-----11-11-11-11--|
A|------9----9--9----9---|----9------9--9--9--9---|
D|--9-9----9-------9-----|--9----9-9--------------|

e|-------------------|
B|-------------------|
G|-------------------|
D|------7-7-----7-7--|
A|------5-5-----5-5--|
D|--5-5-5-5-5-5-5-5--|

e|-----------------------|------------------------|
B|-----------------------|------------------------|
G|-----------------------|------------------------|
D|------11---11-11---11--|----11-----11-11-11-11--|
A|------9----9--9----9---|----9------9--9--9--9---|
D|--9-9----9-------9-----|--9----9-9--------------|

e|-----------------------|------------------------|
B|-----------------------|------------------------|
G|-----------------------|------------------------|
D|--11v------------------|--------------------11--|
A|--9v-------------------|--------------------9---|
D|--0--------------------|--------------------0---|

e|-----------------------|------------------------|
B|-----------------------|------------------------|
G|-----------------------|------------------------|
D|--11v------------------|--------------------11--|
A|--9v-------------------|--------------------9---|
D|--9v-------------------|--------------------9---|

e|-------------------|
B|-------------------|
G|-------------------|
D|--7v------------7--|
A|--5v------------5--|
D|--5v------------5--|

e|---------------------------|---------------------------|
B|---------------------------|---------------------------|
G|---------------------------|---------------------------|
D|--11v---------11-11-11-11--|--11-11-11-11-11-11-11-11--|
A|--9v----------9--9--9--9---|--9--9--9--9--9--9--9--9---|
D|--9v----------9--9--9--9---|--9--9--9--9--9--9--9--9---|

e|---------------------|---------------------|
B|---------------------|---------------------|
G|--6-6-6-7-7-7-9-9-9--|--11-11-11-12-12-12--|
D|--0-0-0-0-0-0-0-0-0--|--0--0--0--0--0--0---|
A|--4-4-4-5-5-5-7-7-7--|--9--9--9--10-10-10--|
D|--0-0-0-0-0-0-0-0-0--|--0--0--0--0--0--0---|

e|---------------------|---------------------|
B|---------------------|---------------------|
G|--6-6-6-7-7-7-9-9-9--|--11-11-11-12-12-12--|
D|--0-0-0-0-0-0-0-0-0--|--0--0--0--0--0--0---|
A|--4-4-4-5-5-5-7-7-7--|--9--9--9--10-10-10--|
D|--0-0-0-0-0-0-0-0-0--|--0--0--0--0--0--0---|

e|---------------------|---------------------|
B|---------------------|---------------------|
G|--6-6-6-7-7-7-9-9-9--|--11-11-11-12-12-12--|
D|--0-0-0-0-0-0-0-0-0--|--0--0--0--0--0--0---|
A|--4-4-4-5-5-5-7-7-7--|--9--9--9--10-10-10--|
E|--0-0-0-0-0-0-0-0-0--|--0--0--0--0--0--0---|

[Bridge, Guitar 2]
e|-----------------------|------------------------|
B|-----------------------|------------------------|
G|-----------------------|------------------------|
D|-----------------------|------------------------|
A|-----------------------|------------------------|
D|-----------------------|------------------------|

e|-----------------------|------------------------|
B|-----------------------|------------------------|
G|-----------------------|------------------------|
D|-----------------------|------------------------|
A|-----------------------|------------------------|
D|-----------------------|------------------------|

e|-------------------|
B|-------------------|
G|-------------------|
D|-------------------|
A|-------------------|
D|-------------------|

e|-----------------------|------------------------|
B|-----------------------|------------------------|
G|-----------------------|------------------------|
D|-----------------------|------------------------|
A|-----------------------|------------------------|
D|-----------------------|------------------------|

e|---------------|------------------|
B|---------------|------------------|
G|--9--9--9--9---|--9--9--9--11-9---|
D|--11-11-11-11--|--11-11-11-11-11--|
A|--9--9--9--9---|--9--9--9--9--9---|
D|---------------|------------------|

e|---------------|------------------|
B|---------------|------------------|
G|--9--9--9--9---|--9--9--9--11-9---|
D|--11-11-11-11--|--11-11-11-11-11--|
A|--9--9--9--9---|--9--9--9--9--9---|
D|---------------|------------------|

e|-----------|
B|-----------|
G|--6-6-6-6--|
D|--7-7-7-7--|
A|--5-5-5-5--|
D|-----------|

e|---------------|------------------|
B|---------------|------------------|
G|--9--9--9--9---|--9--9--9--11-9---|
D|--11-11-11-11--|--11-11-11-11-11--|
A|--9--9--9--9---|--9--9--9--9--9---|
D|---------------|------------------|

e|------------------------------|----------------------|
B|--14-14-14-12-12-12-10-10-10--|----------------------|
G|--x--x--x--x--x--x--x--x--x---|--12-12-12-11-11-9-9--|
D|--11-11-11-9--9--9--7--7--7---|--0--0--0--0--0--0-0--|
A|--0--0--0--0--0--0--0--0--0---|--10-10-10-9--9--7-7--|
D|--0--0--0--0--0--0--0--0--0---|--0--0--0--0--0--0-0--|

e|------------------------------|----------------------|
B|--14-14-14-12-12-12-10-10-10--|----------------------|
G|--x--x--x--x--x--x--x--x--x---|--12-12-12-11-11-9-9--|
D|--11-11-11-9--9--9--7--7--7---|--0--0--0--0--0--0-0--|
A|--0--0--0--0--0--0--0--0--0---|--10-10-10-9--9--7-7--|
D|--0--0--0--0--0--0--0--0--0---|--0--0--0--0--0--0-0--|

e|------------------------------|----------------------|
B|--14-14-14-12-12-12-10-10-10--|----------------------|
G|--x--x--x--x--x--x--x--x--x---|--12-12-12-11-11-9-9--|
D|--11-11-11-9--9--9--7--7--7---|--0--0--0--0--0--0-0--|
A|--0--0--0--0--0--0--0--0--0---|--10-10-10-9--9--7-7--|
D|--0--0--0--0--0--0--0--0--0---|--0--0--0--0--0--0-0--|

[Chorus 3, Guitars 1 & 2]
e|---------------------|---------------|
B|---------------------|---------------|
G|--11-11-11-11-11-11--|--7-7-7-7-7-7--|
D|--9--9--9--9--9--11--|--5-5-5-5-5-5--|
A|--9--9--9--9--9--9---|--5-5-5-5-5-5--|
D|--9--9--9--9--9--9---|--5-5-5-5-5-5--|

e|---------------|---------------|
B|---------------|---------------|
G|--7-7-7-7-7-7--|--7-7-7-7-7-7--|
D|--0-0-0-0-0-0--|--0-0-0-0-0-0--|
A|--5-5-5-5-5-5--|--5-5-5-5-5-5--|
D|--0-0-0-0-0-0--|--0-0-0-0-0-0--|

e|---------------------|---------------|
B|---------------------|---------------|
G|--11-11-11-11-11-11--|--7-7-7-7-7-7--|
D|--9--9--9--9--9--11--|--5-5-5-5-5-5--|
A|--9--9--9--9--9--9---|--5-5-5-5-5-5--|
D|--9--9--9--9--9--9---|--5-5-5-5-5-5--|

e|---------------|---------------|
B|---------------|---------------|
G|--7-7-7-7-7-7--|--7-7-7-7-7-7--|
D|--0-0-0-0-0-0--|--0-0-0-0-0-0--|
A|--5-5-5-5-5-5--|--5-5-5-5-5-5--|
D|--0-0-0-0-0-0--|--0-0-0-0-0-0--|

e|---------------------|---------------|
B|---------------------|---------------|
G|--11-11-11-11-11-11--|--7-7-7-7-7-7--|
D|--9--9--9--9--9--11--|--5-5-5-5-5-5--|
A|--9--9--9--9--9--9---|--5-5-5-5-5-5--|
D|--9--9--9--9--9--9---|--5-5-5-5-5-5--|

e|---------------|---------------|
B|---------------|---------------|
G|--7-7-7-7-7-7--|--9-9-9-9-9-9--|
D|--0-0-0-0-0-0--|--7-7-7-7-7-7--|
A|--5-5-5-5-5-5--|--7-7-7-7-7-7--|
D|--0-0-0-0-0-0--|--7-7-7-7-7-7--|

e|---------------|---------------|
B|---------------|---------------|
G|--7-7-7-7-7-7--|--7-7-7-7-7-7--|
D|--5-5-5-5-5-5--|--5-5-5-5-5-5--|
A|--5-5-5-5-5-5--|--5-5-5-5-5-5--|
D|--5-5-5-5-5-5--|--5-5-5-5-5-5--|

e|---------------|---------------|
B|---------------|---------------|
G|--7-7-7-7-7-7--|--7-7-7-7-7-7--|
D|--5-5-5-5-5-5--|--5-5-5-5-5-5--|
A|--5-5-5-5-5-5--|--5-5-5-5-5-5--|
D|--5-5-5-5-5-5--|--5-5-5-5-5-5--|

e|------|
B|--8v--|
G|--7v--|
D|--5v--|
A|--5v--|
D|--5v--|



************************************

| v Vibrato/Let Ring
| x Dead Note/Mute

************************************

            
            
Suggest correction
Creating personal tab
Creating personal tab
You can edit any tab online and save it as your Personal.

You can edit, replace or remove any tab part or add personal notes – all changes will be seen only by you.

Personal tabs can be accessed anytime from any device, even offline.
Learn more »
Give kudos to tab author, rate the tab!
1 2 3 4 5
comments
print report bad tab
guest
You may want to rate the tab now too:
select rating
Wanna post a correction for this tab? Suggest correction