Oops, an error
Loading. Please wait.
We have an official Everlong tab made by UG professional guitarists. Check out the tab »
×
478 views 33 this week
no commentswrite comment
1 2 3 4 5
x 6
add to favorites
×
Save as Personal and add changes to this tab that will be seen only by you. Learn more ›
×
You can save this tab as Personal to edit and correct it or add notes. All changes will be seen only by you. Learn more »
launch autoscroll
font size
0
reset
transpose
0
reset
display chords
guitar tuner
backing track
0:00
0:00
edit
Autoscroll
slow
fast
+/-
esc
set tempo
stop
Author
Difficulty
Strumming
There is no strumming pattern for this song yet. and get +5 IQ
This is the basic tab for the acoustic version of Everlong on ukulele 
It sounds a bit different, obviously, but it's on a ukulele so... 

[Main riff] 
A|------4---4-4---4-4---4---4-4-4-------4---4-4---4-4---4---4-4-4--------------|
E|------2---2-2---2-2---2---2-2-2-------2---2-2---2-2---2---2-2-2--------------|
C|--2-2---2-----2-----2---2-------2--------------------------------------------|
G|----------------------------------4-4---4-----4-----4---4-------4------------|

A|------0-0-----0-0-----4-4-----4-4-----4-4-----4-4----------------------------|
E|----------------------2-2-----2-2-----2-2-----2-2----------------------------|
C|------2-2-----2-2------------------------------------------------------------|
G|--0-0-----0-0-----4-4-----4-4-----4-4-----4-4--------------------------------|

This continues throughout the whole song. 

            
            
Suggest correction
Creating personal tab
Creating personal tab
You can edit any tab online and save it as your Personal.

You can edit, replace or remove any tab part or add personal notes – all changes will be seen only by you.

Personal tabs can be accessed anytime from any device, even offline.
Learn more »
There is a new version of this tab from 3 days ago which you may like more. Go check it out:
comments
print report bad tab
guest
You may want to rate the tab now too:
select rating
Wanna post a correction for this tab? Suggest correction