Oops, an error
Loading. Please wait.

Everlong Bass Tab

18,813 views 3 this week
3 commentsread comments
1 2 3 4 5
accurate
x 15
add to favorites
launch autoscroll
font size
0
reset
guitar tuner
Autoscroll
slow
fast
+/-
esc
set tempo
stop
Help us to improve Ultimate-Guitar.com Take our survey!
×
Drop D Tuning: DADGBe

Intro
  Q=160
 4/4
  Gtr I
  Wx14
|---------|
|---------|
|---------|
|---------|


   Verse
    E E E E E E E E   E E E E E E E E   E E E E E E E E   E E E E E E E E
||------------------|-----------------|-----------------|------------------|
||o-----------------|-----------------|-----------------|------------------|
||o-----------------|-----------------|-2-2-2-2-2-2-2-2-|-2-2-2-2-2-2-2-2--|
||--0-0-0-0-0-0-0-0-|-0-0-0-0-0-0-0-0-|-----------------|------------------|


  E E E E E E E E   E E E E E E E E   E E E E E E E E  6x
|-----------------|-----------------|------------------||
|-----------------|-----------------|-----------------o||
|-----------------|-2-2-2-2-2-2-2-2-|-2-2-2-2-2-2-2-2-o||
|-5-5-5-5-5-5-5-5-|-----------------|------------------||


 Interlude
  $
  E E E E E E E E   E E E E E E E E   +E  E E +E  E E +Q     E E E E E E E E
|-----------------|-----------------|----------------------|-----------------|
|-------0-0-0-2-2-|-2-4-4-4-4-5-4---|----------------------|-------0-0-0-2-2-|
|-4-4-4-----------|---------------0-|-(0)-0-0-(0)-0-0-(0)--|-4-4-4-----------|
|-----------------|-----------------|----------------------|-----------------|


  E E E E E E E E   +E  E E +E  E E +Q     E E E E E E E E   E E E E E E E E
|-----------------|----------------------|-----------------|-----------------|
|-2-4-4-4-4-5-4---|----------------------|-------0-0-0-2-2-|-2-4-4-4-4-5-4---|
|---------------0-|-(0)-0-0-(0)-0-0-(0)--|-4-4-4-----------|---------------2-|
|-----------------|----------------------|-----------------|-----------------|


   Chorus
    +E  E E +E  E E E E   +E  E E +E  E E E E
||----------------------|---------------------|
||o---------------------|---------------------|
||o-(2)-2-2-(2)-2-2-2---|---------------------|
||--------------------5-|-(5)-5-5-(5)-5-5-5-0-|


  +E  E E +E  E E E E   +E  E E +E  E E E E
|---------------------|-----------------------||
|---------------------|----------------------o||
|---------------------|-------------------2--o||
|-(0)-0-0-(0)-0-0-0-0-|-(0)-0-0-(0)-0-0-0-----||


  +E  E E +E  E E E E   +E  E E +E  E E E E
|---------------------|---------------------|
|---------------------|---------------------|
|-(2)-2-2-(2)-2-2-2---|---------------------|
|-------------------5-|-(5)-5-5-(5)-5-5-5-0-|


  +E  E E +E  E E E E   +E  E E +E  E E E E
|---------------------|---------------------|
|---------------------|---------------------|
|-------------------0-|-(0)-0-0-(0)-0-0-0-0-|
|-(0)-0-0-(0)-0-0-0---|---------------------|


                        To Coda
  E E E E E E Q  E E E E E E Q
|-------------------------------|
|-------------------------------|
|-------------------------------|
|-5-5-5-5-5-5-5--5-5-5-5-5-5-5--|


   Verse
    E E E E E E E E   E E E E E E E E   E E E E E E E E   E E E E E E E E
||------------------|-----------------|-----------------|------------------|
||o-----------------|-----------------|-----------------|------------------|
||o-----------------|-----------------|-2-2-2-2-2-2-2-2-|-2-2-2-2-2-2-2-2--|
||--0-0-0-0-0-0-0-0-|-0-0-0-0-0-0-0-0-|-----------------|------------------|


                                        D.S. al Coda
  E E E E E E E E   E E E E E E E E   E E E E E E E E  3x
|-----------------|-----------------|------------------||
|-----------------|-----------------|-----------------o||
|-----------------|-2-2-2-2-2-2-2-2-|-2-2-2-2-2-2-2-2-o||
|-5-5-5-5-5-5-5-5-|-----------------|------------------||


 Bridge
  &
  Wx11
|---------|
|---------|
|---------|
|---------|


  E E E E E E E E   E E E E E E E E   E E E E E E E E
|-----------------|-----------------|-----------------|
|-----------------|-----------------|-----------------|
|-----------------|-2-2-2-2-2-2-2-2-|-2-2-2-2-2-2-2-2-|
|-5-5-5-5-5-5-5-5-|-----------------|-----------------|


 Guitar Solo
  E E E E E E E E   E E E E E E Q    E E E E E E E E   E E E E E E Q
|-----------------|----------------|-----------------|----------------|
|-----------------|----------------|-----------------|----------------|
|-4-4-4-2-2-2-0-0-|-0--------------|-4-4-4-2-2-2-0-0-|-0--------------|
|-----------------|---5-5-5-4-5-4--|-----------------|---5-5-5-4-5-4--|


  E E E E E E E E   E E E E E E E E
|-----------------|-----------------|
|-------0-0-0-2-2-|-2-4-4-4-4-5-4---|
|-4-4-4-----------|---------------2-|
|-----------------|-----------------|


   Chorus
    +E  E E +E  E E E E   +E  E E +E  E E E E
||----------------------|---------------------|
||o---------------------|---------------------|
||o-(2)-2-2-(2)-2-2-2---|---------------------|
||--------------------5-|-(5)-5-5-(5)-5-5-5-0-|


  +E  E E +E  E E E E   +E  E E +E  E E E E
|---------------------|-----------------------||
|---------------------|----------------------o||
|---------------------|-------------------2--o||
|-(0)-0-0-(0)-0-0-0-0-|-(0)-0-0-(0)-0-0-0-----||


  +E  E E +E  E E E E   +E  E E +E  E E E E
|---------------------|---------------------|
|---------------------|---------------------|
|-(2)-2-2-(2)-2-2-2---|---------------------|
|-------------------5-|-(5)-5-5-(5)-5-5-5-0-|


  +E  E E +E  E E E E   +E  E E +E  E E E E
|---------------------|---------------------|
|---------------------|---------------------|
|-------------------0-|-(0)-0-0-(0)-0-0-0-0-|
|-(0)-0-0-(0)-0-0-0---|---------------------|


 Outro
  E E E E E E Q    E E E E E E Q    E E Q  E E E E   E E Q  E E E E
|----------------|----------------|----------------|----------------|
|----------------|----------------|----------------|----------------|
|----------------|----------------|----------------|----------------|
|-5-5-5-5-5-5-5--|-5-5-5-5-5-5-5--|-5-5-5--5-5-5-5-|-5-5-5--5-5-5-5-|


  W          +W           +W           +W
|----------|------------|------------|--------|
|----------|------------|------------|--------|
|----------|------------|------------|--------|
|-5--------|-(5)--------|-(5)--------|-(5)----|
Suggest correction
comments
print report bad tab
3 comments total.
0 reply
Diphallus 135 wrote on July 21 2009, 08:11 pm

Very nice. Most accurate tab here by far.

0 reply
larrymcqueary 31 wrote on May 7 2013, 03:28 pm

The "Interlude", or pre-chorus as most others call it, is simply riding the D. The bass doesn't climb the C# progression with the guitars. Also, during the chorus, he's not playing the open D. He's an octave up, either D(12) or (A5). Listen to it.

0 reply
Indorfin 10 wrote on June 1 2016, 06:07 am

Verse and pre-chorus are very wrong, try listening to the bass track on its own and it'll be obvious why

guest
You may want to rate the tab now too:
select rating
Wanna post a correction for this tab? Suggest correction