Oops, an error
Loading. Please wait.
We have an official Everlong tab made by UG professional guitarists. Check out the tab »
×

Everlong chords

123,759 views 954 this week
3 commentsread comments
1 2 3 4 5
x 63
add to favorites
×
Save as Personal and add changes to this tab that will be seen only by you. Learn more ›
×
You can save this tab as Personal to edit and correct it or add notes. All changes will be seen only by you. Learn more »
launch autoscroll
font size
0
reset
transpose
0
reset
display chords
guitar tuner
backing track
0:00
0:00
edit
Autoscroll
slow
fast
+/-
esc
set tempo
stop
Strumming
There is no strumming pattern for this song yet. and get +5 IQ
[Intro/Verse:]

   D
e|-------------------------------------|
B|-------------------------------------|
G|-------------------------------------|
D|-----11----11-11---11---11---11-11-11|
A|-----9-----9--9----9----9----9--9--9-|
D|-0-0----0-------0-----0----0---------|

   Bm
e|-------------------------------------|
B|-------------------------------------|
G|-------------------------------------|
D|-----11----11-11---11---11---11-11-11|
A|-----9-----9--9----9----9----9--9--9-|
D|-9-9----9-------9----9----9----------|

   G                Bm
e|-------------------------------------------------------|
B|-------------------------------------------------------|
G|-------------------------------------------------------|
D|-----7-------7--------11----11-11----11---11---11-11-11|
A|-----5-------5--------9-----9--9-----9----9----9--9--9-|
D|-5-5---5-5-5---5--9-9----9--------9----9----9----------|


[Verse 1:]

D
Hello
     Bm
I've waited here for you
G   Bm
 Everlong 

Tonight
I throw myself into
And out of the red, out of her head she sang

   D
e|-------------------------------------|
B|-------------------------------------|
G|-------------------------------------|
D|-----11----11-11---11---11---11-11-11|
A|-----9-----9--9----9----9----9--9--9-|
D|-0-0----0-------0-----0----0---------|

   Bm
e|-------------------------------------|
B|-------------------------------------|
G|-------------------------------------|
D|-----11----11-11---11---11---11-11-11|
A|-----9-----9--9----9----9----9--9--9-|
D|-9-9----9-------9----9----9----------|

   G                Bm
e|-------------------------------------------------------|
B|-------------------------------------------------------|
G|-------------------------------------------------------|
D|-----7-------7--------11----11-11----11---11---11-11-11|
A|-----5-------5--------9-----9--9-----9----9----9--9--9-|
D|-5-5---5-5-5---5--9-9----9--------9----9----9----------|

[Verse 2]

Come down
And waste away with me
Down with me

Slow how
You wanted it to be
I'm over my head, out of her head she sang


[Pre-Chorus]

   Db    D     E     F#          G  F# E
e|-----------------------------------------------|
B|-----------------------------------------------|
G|-6-6-6-7-7-7-9-9-9-11-11-11-11-12-11-9-9-9-9-9-|
D|-----------------------------------------------|
A|-4-4-4-5-5-5-7-7-7-9--9--9--9--10-9--7-7-7-7-7-|
D|-0-0-0-0-0-0-0-0-0-0--0--0--0--0--0--0-0-0-0-0-|

Db D E F# G F# E    Db D E F# G F# E             Db D E F# G F# E
                And I    wonder      When I sing along with you

[Chorus]
Bm                         G                 D                    
 If everything could ever feel this real forever
Bm                       G            D                          
 If anything could ever be this good again
Bm                         G                                       
 The only thing I'll ever ask of you
D                              A               G                    
  You've got to promise not to stop when I say when She sang 


   D
e|-------------------------------------|
B|-------------------------------------|
G|-------------------------------------|
D|-----11----11-11---11---11---11-11-11|
A|-----9-----9--9----9----9----9--9--9-|
D|-0-0----0-------0-----0----0---------|

   Bm
e|-------------------------------------|
B|-------------------------------------|
G|-------------------------------------|
D|-----11----11-11---11---11---11-11-11|
A|-----9-----9--9----9----9----9--9--9-|
D|-9-9----9-------9----9----9----------|

   G                Bm
e|-------------------------------------------------------|
B|-------------------------------------------------------|
G|-------------------------------------------------------|
D|-----7-------7--------11----11-11----11---11---11-11-11|
A|-----5-------5--------9-----9--9-----9----9----9--9--9-|
D|-5-5---5-5-5---5--9-9----9--------9----9----9----------|

[Verse 3]

Breathe out     
so I can breathe you in
Hold you in 

And now 
I know you've always been
Out of your head, out of my head I sang

[Pre-Chorus]

   Db    D     E     F#          G  F# E
e|-----------------------------------------------|
B|-----------------------------------------------|
G|-6-6-6-7-7-7-9-9-9-11-11-11-11-12-11-9-9-9-9-9-|
D|-----------------------------------------------|
A|-4-4-4-5-5-5-7-7-7-9--9--9--9--10-9--7-7-7-7-7-|
D|-0-0-0-0-0-0-0-0-0-0--0--0--0--0--0--0-0-0-0-0-|

Db D E F# G F# E    Db D E F# G F# E             Db D E F# G F# E
                And I    wonder      When I sing along with you

[Chorus]
Bm                         G                 D                    
 If everything could ever feel this real forever
Bm                       G            D                          
 If anything could ever be this good again
Bm                         G                                       
 The only thing I'll ever ask of you
D                              A               G                    
  You've got to promise not to stop when I say when She sang

   D
e|-------------------------------------|
B|-------------------------------------|
G|-------------------------------------|
D|-----11----11-11---11---11---11-11-11|
A|-----9-----9--9----9----9----9--9--9-|
D|-0-0----0-------0-----0----0---------|

   Bm
e|-------------------------------------|
B|-------------------------------------|
G|-------------------------------------|
D|-----11----11-11---11---11---11-11-11|
A|-----9-----9--9----9----9----9--9--9-|
D|-9-9----9-------9----9----9----------|

   G                Bm
e|-------------------------------------------------------|
B|-------------------------------------------------------|
G|-------------------------------------------------------|
D|-----7-------7--------11----11-11----11---11---11-11-11|
A|-----5-------5--------9-----9--9-----9----9----9--9--9-|
D|-5-5---5-5-5---5--9-9----9--------9----9----9----------|

[Chorus]
Bm                         G                 D                    
 If everything could ever feel this real forever
Bm                       G            D                          
 If anything could ever be this good again
Bm                         G                                       
 The only thing I'll ever ask of you
D                              A               G                    
  You've got to promise not to stop when I say when She sang

            
            
Suggest correction
Creating personal tab
Creating personal tab
You can edit any tab online and save it as your Personal.

You can edit, replace or remove any tab part or add personal notes – all changes will be seen only by you.

Personal tabs can be accessed anytime from any device, even offline.
Learn more »
comments
print report bad tab
3 comments total.
+1 reply
0anders 10 Aug 10, 2015 07:53 AM

Amazing! Clearly great. Just remember to drop it to D ;)

0 reply
isak_bengtsson_02_ib 131 Feb 08, 2017 02:01 PM

In the chorus after the D chords there should be an A chord. Otherwise its good.

0 reply
niels.schaefer 10 Apr 17, 2017 10:27 AM

These chords work out very well. Thank you 🙏🏻

guest
You may want to rate the tab now too:
select rating
Wanna post a correction for this tab? Suggest correction