Oops, an error
Loading. Please wait.

Everlong Bass Tab

15,159 views 3 this week
2 commentsread comments
1 2 3 4 5
accurate
x 8
add to favorites
launch autoscroll
font size
0
reset
guitar tuner
Autoscroll
slow
fast
+/-
esc
set tempo
stop
Help us to improve Ultimate-Guitar.com Take our survey!
×
Author
Difficulty
Tuning
intermediate
D A D G B E
Foo Fighters - Everlong

Tabbed By: FlamingQuilava
Tuning: Drop D

Intro - No bass is played
Intromedley 1 - Piece connecting Verse 1 and the intro
G|-------------------------------------------------------------------------|
D|-------------------------------------------------------------------------|
A|----4---4-4---4-----4----4-4-4-4-4--2x16------2x16-----------------------|
D|0-0---0-----0---0-0---0------------------5x8-----------------------------|
Play riff above during verse

Play this part (before Pre-Chorus)
G|-------------------------------------------------------------------------|
D|-------------------------------------------------------------------------|
A|------------------2-2-2-2-2-2-2-2-2-2-2-2-2-2-2-2------------------------|
D|-5-5-5-5-5-5-5-5---------------------------------------------------------|

Pre-Chorus
G|-------------------------------------------------------------------------|
D|-------------------------------------------------------------------------|
A|-----------------------------------7-7-7-7-7-7----------------|x2|-------|
D|0-0-0-0-0-0-0-0-0-0-0-0-0-0-0-0-0----------------------------------------|

(The third time, play only the open bottom D string, then play Chorus
Chorus
G|-------------------------------------------------------------------------|
D|-------------------------------------------------------------------------|
A|2-2-2-2-2---------------5-----5-5-5-5-5-5-5-5-5---x2---------------------|
D|----------5-5-5-5-5------------------------------------------------------|

Third time play this
G|-------------------------------------------------------------------------|
D|-------------------------------------------------------------------------|
A|-2-2-2-2-2--------------5-5-5-5-5----------------------------------------|
D|-----------5-5-5-5-5-----------------7-7-7-7--5-5-5-5-5-5-5-5-5-5-5-5-5-5|

Intromedley 2 - Play Intromedley 1
Prechorus 2 - Play Pre-chorus
Chorus 2 - Play Chorus

After Chorus, no bass is played until the 3rd Prechorus (the guitar sounds different here)
G|-------------------------------------------------------------------------|
D|-------------------------------------------------------------------------|
A|-------------------------------------------------------------------------|
D|--0-0-0-0-0--all throughout until Chorus---------------------------------|

Chorus 3 - Play Chorus, then end with
G|-------------------------------------------------------------------------|
D|-------------------------------------------------------------------------|
A|----5--------------------------------------------------------------------|
E|-------------------------------------------------------------------------|

Suggest correction
comments
print report bad tab
2 comments total.
+1 reply
metalman85 10 wrote on December 2 2012, 08:23 pm

maybe those 4s at the beginning should be 5s?

0 reply
larrymcqueary 31 wrote on May 7 2013, 03:48 pm

You're getting the bass and guitar parts mixed up on the intro. The bass doesn't jump between the D (D0) and the C# (A4) like that. Even if it did, it would be jumping to D (A5, the octave).

guest
You may want to rate the tab now too:
select rating
Wanna post a correction for this tab? Suggest correction