Oops, an error
Loading. Please wait.

Everlong Bass Tab

21,647 views 36 this week
2 commentsread comments
1 2 3 4 5
not so good
x 5
add to favorites
launch autoscroll
font size
0
reset
guitar tuner
Tab Pro tools
  • play this tab
  • loop segment
  • change instrument
  • show fretboard
  • metronome
×
Best way to learn
"Everlong"
Autoscroll
slow
fast
+/-
esc
set tempo
stop
Contributor
Tabbed by: jaronthebassist

                                            Everlong                                             


                                                                                     Foo Fighters
Bass



      E  E   E  E   E   E  E   E     E  E   E  E   E   E   E  E     E  E   E  E   E   E  E   E   
G||---------11-----11--11-----11--|--------11-----11--11--11-----|--------11-----11--11-----11--|
D||*--0--0---0--0---0---0--0---0--|--0--0---0--0---0---0---0--0--|--9--9---9--9---9---9--9---9--|
A||*------------------------------|------------------------------|------------------------------|
E||-------------------------------|------------------------------|------------------------------|


  E  E   E  E   E   E   E  E     E  E  E  E  E  E  E  E      E  E   E  E  E  E   E  E   
--------11-----11--11--11-----|--------7-----------7------|--------11-----------11-----|
--9--9---9--9---9---9---9--9--|--5--5--5--5--5--5--5--5S--|--9--9---9--9--9--9---9--9--|
------------------------------|---------------------------|----------------------------|
------------------------------|---------------------------|----------------------------|


  E  E   E  E  E  E   E  E        E  E  E  E  E  E  E  E     E  E  E  E  E  E  E  E   
--------11-----------11------||---------------------------|--------------------------|
--9--9---9--9--9--9---9--9--*||*--------------------------|--------------------------|
----------------------------*||*--5--5--5--5--5--5--5--5--|--5--5--5--5--5--5--5--5--|
-----------------------------||---------------------------|--------------------------|


  E  E  E  E  E  E  E  E     E  E  E  E  E  E  E  E     E  E  E  E  E  E  Q      
--------------------------|--------------------------|--------------------------|
--------------------------|--------------------------|--------------------------|
--------------------------|--------------------------|--------------------------|
--7--7--7--7--7--7--7--7--|--7--7--7--7--7--7--7--5--|--3--3--3--3--3--3--3S----|


  E  E  E  E  E  E  E  E     E  E  E  E  E  E  E  E   6x   E  E  E  E  E  E  E  E   
--------------------------|---------------------------||---------------------------|
--------------------------|--------------------------*||*--------------------------|
--------------------------|--------------------------*||*--5--5--5--5--5--5--5--5--|
--7--7--7--7--7--7--7--7--|--7--7--7--7--7--7--7--7---||---------------------------|


  E  E  E  E  E  E  E  E     E  E  E  E  E  E  E  E       E  E  E  E  E  E  E  E   
--------------------------|---------------------------||--------------------------|
--------------------------|--------------------------*||--------------------------|
--5--5--5--5--5--5--5-----|--------------------------*||--4--4--4--5--5--5--7--7--|
-----------------------5--|--5--5--5--5--5--5--5--5---||--------------------------|


  E  E  E  E  E   E   E  E       E  E  Q    E  E  E  E     E  E  Q    E  E  E  E   
----------------------------||--------------------------|-------------------------|
----------------------------||*-------------------------|-------------------------|
--7--9--9--9--9--10--12-----||*-------------------5-----|-------------------5--5--|
-------------------------7--||---L--7--7----7--7-----3--|--L--3--3----3--3--------|


  E  E  Q    E  E  E  E     E  E  E  E  E  E  E  E   3x  E  E  Q    E  E  E  E   
-------------------------|---------------------------||-------------------------|
-------------------------|--------------------------*||-------------------------|
--5--5--5----5--5--5--5--|--5--5--5--5--5--5--5-----*||--5--5--5----5--5--5-----|
-------------------------|-----------------------7---||----------------------5--|


  E  E  E  E  E  E  E  E     E  E  E  E  E  E  E  E     E  E  E  E  E  E  E  E   
--------------------------|--------------------------|--------------------------|
--------------------------|--------------------------|--------------------------|
--------------------------|--------------------------|--------------------------|
--5--5--5--5--5--5--5--5--|--3--3--3--3--3--3--3--3--|--3--3--3--3--3--3--3--3--|


    E  E  E  E  E  E  E  E     E  E  E  E  E  E  E  E     E  E  E  E  E  E  E  E   
|---------------------------|--------------------------|--------------------------|
|*--------------------------|--------------------------|--------------------------|
|*--5--5--5--5--5--5--5--5--|--5--5--5--5--5--5--5--5--|--------------------------|
|---------------------------|--------------------------|--7--7--7--7--7--7--7--7--|


  E  E  E  E  E  E  E  E     E  E  E  E  E  E  Q        E  E  E  E  E  E  E  E   
--------------------------|--------------------------|--------------------------|
--------------------------|--------------------------|--------------------------|
--------------------------|--------------------------|--------------------------|
--7--7--7--7--7--7--7--5--|--3--3--3--3--3--3--3S----|--7--7--7--7--7--7--7--7--|


  E  E  E  E  E  E  E  E   3x   E  E  E  E  E  E  E  E     E  E  E  E  E  E  E  E   
---------------------------||---------------------------|--------------------------|
--------------------------*||*--------------------------|--------------------------|
--------------------------*||*--5--5--5--5--5--5--5--5--|--5--5--5--5--5--5--5-----|
--7--7--7--7--7--7--7--7---||---------------------------|-----------------------5--|


  E  E  E  E  E  E  E  E       E  E  E  E  E  E  E  E     E  E  E  E  E   E   E  E   
---------------------------||--------------------------|----------------------------|
--------------------------*||--------------------------|----------------------------|
--------------------------*||--4--4--4--5--5--5--7--7--|--7--9--9--9--9--10--12-----|
--5--5--5--5--5--5--5--5---||--------------------------|-------------------------7--|


    E  E  Q    E  E  E  E     E  E  Q    E  E  E  E     E  E  Q    E  E  E  E   
|--------------------------|-------------------------|-------------------------|
|*-------------------------|-------------------------|-------------------------|
|*-------------------5-----|-------------------5--5--|--5--5--5----5--5--5--5--|
|---L--7--7----7--7-----3--|--L--3--3----3--3--------|-------------------------|


  E  E  E  E  E  E  E  E       E  E  Q    E  E  E  E     E  E  E  E  E  E  E  E   
---------------------------||-------------------------|--------------------------|
--------------------------*||-------------------------|--------------------------|
--5--5--5--5--5--5--5-----*||--5--5--5----5--5--5-----|--------------------------|
-----------------------7---||----------------------5--|--5--5--5--5--5--5--5--5--|


  E  E  E  E  E  E  E  E     E  E  E  E  E  E  E  E       E  E   E  E   E   E  E   E   
--------------------------|--------------------------||---------11-----11--11-----11--|
--------------------------|--------------------------||*--0--0---0--0---0---0--0---0--|
--------------------------|--------------------------||*------------------------------|
--3--3--3--3--3--3--3--3--|--3--3--3--3--3--3--3--3--||-------------------------------|


  E  E   E  E   E   E   E  E     E  E   E  E   E   E  E   E     E  E   E  E   E   E   E  E   
--------11-----11--11--11-----|--------11-----11--11-----11--|--------11-----11--11--11-----|
--0--0---0--0---0---0---0--0--|--9--9---9--9---9---9--9---9--|--9--9---9--9---9---9---9--9--|
------------------------------|------------------------------|------------------------------|
------------------------------|------------------------------|------------------------------|


  E  E  E  E  E  E  E  E      E  E   E  E  E  E   E  E     E  E   E  E  E  E   E  E     
--------7-----------7------|--------11-----------11-----|--------11-----------11------||
--5--5--5--5--5--5--5--5S--|--9--9---9--9--9--9---9--9--|--9--9---9--9--9--9---9--9--*||
---------------------------|----------------------------|----------------------------*||
---------------------------|----------------------------|-----------------------------||


  E  E  E  E  E  E  E  E     E  E  E  E  E   E   E   E     E  E  E  E  E  E  E  E   
--------------------------|-----------------------------|--------------------------|
--------------------------|-----------------------------|--------------------------|
--4--4--4--5--5--5--7--7--|--7--9--9--9--9--10--12--12--|--4--4--4--5--5--5--7--7--|
--------------------------|-----------------------------|--------------------------|


  E  E  E  E  E   E   E   E     E  E  E  E  E  E  E  E     E  E  E  E  E   E   E  E   
-----------------------------|--------------------------|----------------------------|
-----------------------------|--------------------------|----------------------------|
--7--9--9--9--9--11--12--12--|--4--4--4--5--5--5--7--7--|--7--9--9--9--9--10--12-----|
-----------------------------|--------------------------|-------------------------7--|


    E  E  Q    E  E  E  E     E  E  Q    E  E  E  E     E  E  Q    E  E  E  E   
|--------------------------|-------------------------|-------------------------|
|*-------------------------|-------------------------|-------------------------|
|*-------------------5-----|-------------------5--5--|--5--5--5----5--5--5--5--|
|---L--7--7----7--7-----3--|--L--3--3----3--3--------|-------------------------|


  E  E  E  E  E  E  E  E   3x  E  E  Q    E  E  E  E     E  E  E  E  E  E  E  E   
---------------------------||-------------------------|--------------------------|
--------------------------*||-------------------------|--------------------------|
--5--5--5--5--5--5--5-----*||--5--5--5----5--5--5-----|--------------------------|
-----------------------7---||----------------------5--|--5--5--5--5--5--5--5--5--|


  E  E  E  E  E  E  E  E     E  E  E  E  E  E  E  E     E  E  E  E  E  E  E  E   
--------------------------|--------------------------|--------------------------|
--------------------------|--------------------------|--------------------------|
--------------------------|--------------------------|--------------------------|
--3--3--3--3--3--3--3--3--|--3--3--3--3--3--3--3--3--|--3--3--3--3--3--3--3--3--|


  E  E  E  E  E  E  E  E     H          H           W                  
--------------------------|----------------------|-------------------||
--------------------------|----------------------|-------------------||
--------------------------|----------------------|-------------------||
--3--3--3--3--3--3--3--3--|--LS--------15--------|--L----------------||




Duration Legend
---------------
W - whole
H - half
Q - quarter
E - 8th
S - 16th
T - 32nd
X - 64th
. - note dotted
|-n-|  - n-tuplets


Tablature Legend
----------------
L - tied note
x - dead note
g - grace note
(n) - ghost note
> - accentuded note
NH - natural harmonic
AH - artificial harmonic
TH - tapped harmonic
SH - semi harmonic
PH - pitch harmonic
h - hammer on
p - pull off
b - bend
br - bendRelease
pb - preBend
pbr - preBendRelease
brb - bendReleaseBend
\n/ - tremolo bar dip
\n - tremolo bar dive
-/n - tremolo bar Release up
/n\ - tremolo bar inverted dip
/n - tremolo bar return
-\n - tremolo bar Release down
S - shift slide
s - legato slide
/ -  slide into from below or out of upwards
\ -  slide into from above or out of downwards
~ - vibrato
W - wide vibrato
tr - trill
TP - tremolo picking
T - tapping
S - slap
P - pop
< - fade in
^ - brush up
v - brush down
comments
print report bad tab
2 comments total.
+1 reply
foamykage wrote on November 8 2009, 10:16 pm

intro is way off

0 reply
larrymcqueary wrote on May 7 2013, 04:07 pm

He's just playing the lower guitar intro part on bass. Can be useful to fill out the sound when you're playing this as a 3-piece.

I want to post or [tab]
guest
You may want to rate the tab now too:
select rating
Please do not post tabs as comments. Select "correction" instead!