Oops, an error
Loading. Please wait.

Everlong Bass Tab

2,643 views 6 this week
1 commentread comment
1 2 3 4 5
x 8
add to favorites
launch autoscroll
font size
0
reset
guitar tuner
Autoscroll
slow
fast
+/-
esc
set tempo
stop
Help us to improve Ultimate-Guitar.com Take our survey!
×
Author
Difficulty
novice
SONG: Everlong
ARTIST: Foo Fighters
ALBUM: The Colour and the Shape (1997)
BASSIST: Nate Mandel
----------------------------------------------------------|
----------------------------------------------------------|
I've decided to tab this out in E-Standard... 
as there's no good versions of this tab in standard tuning.
-----------------------------------------------------------|
-----------------------------------------------------------|
Verse:
G|---------------------------------------------------------------------------------|
D|*--------------------------------------------------------------------------------|
A|*--------------------------------------------------------------------------------|
E|-10-10-10-10-10-10-10-10-10-10-10-10-10-10-10-10-7-7-7-7-7-7-7-7-7-7-7-7-7-7-7-7-|

G|-------------------------------------------------|
D|------------------------------------------------*|
A|------------------------------------------------*|
E|-3-3-3-3-3-3-3-3-7-7-7-7-7-7-7-7-7-7-7-7-7-7-7-7-|

Verse x6

Pre-Chorus:
G|---------------------------------------------|
D|*------0-0-0-2-2-2-4-4-4-4-5-4--------------*|
A|*4-4-4-------------------------0--0-0--0-0-0*|
E|---------------------------------------------|

Pre-Chorus x3

Chorus:
G|--------------------------------------------------------------------|
D|*------------------------------------------------------------------*|
A|*2--2-2--2-2-2----------------------------------------------------2*|
E|---------------3--3-3--3-3-3-10--10-10--10-10-10-10--10-10--10-10---|

G|-------------------------------------------------------------|
D|-------------------------------------------------------------|
A|-2-2--2-2-2--------------------------------------------------|
E|------------3--3-3--3-3-3-10--10-10--10-10-10--5--5-5--5-5-5-|

G|---------------------------------|
D|---------------------------------|
A|---------------------------------|
E|-3-3-3-3-3-3-3-3-3-3-3-3-3-3-3-3-|

Chorus x1

Verse x3

Pre-Chorus x3

Chorus x1

Rest

Verse x1 (Quiet)

Pre-Chorus Modified:
G|-------------------------------|
D|*------0-0-0-2-2-2-4-4-4-4-5-4*|
A|*4-4-4------------------------*|
E|-------------------------------|

Pre-Chorus Modified x3

Chorus x1

Outro:
G|--------------------------------------------------------------------------|
D|--------------------------------------------------------------------------|
A|--------------------------------------------------------------------------|
E|-3-3-3-3-3-3-3-3-3-3-3-3-3-3-3-3-3-3-3-3-3-3-3-3-3-3-3-3-3-3-3-3-3~~~~~~~-|

Outro x1

-----------------------------------------------------------|
-----------------------------------------------------------|
| /  slide up
| \  slide down
| h  hammer-on
| b  bend note
| p  pull-off
| ~  let ring
| +  harmonic
| x  mute note
| s  slap note
| *  repeat section
Suggest correction
comments
print report bad tab
1 comment total.
0 reply
larrymcqueary 31 May 07, 2013 02:44 PM

People seem to want to make this song harder or more involved than it is. The verse is D-B-G-B. The pre-chorus is just riding the D. It's only the guitars that climb that C# progression in the pre-chorus, not the bass.

guest
You may want to rate the tab now too:
select rating
Wanna post a correction for this tab? Suggest correction