Oops, an error
Loading. Please wait.

Exhausted Tab

version 3
version 3

Whole song

Interactive

2,428 views 6 this week
2 commentsread comments
1 2 3 4 5
please rate
add to favorites
launch autoscroll
font size
0
reset
how to read this tab
guitar tuner
Autoscroll
slow
fast
+/-
esc
set tempo
stop
Help us to improve Ultimate-Guitar.com Take our survey!
×
Tuning
D A D G B E
Hey guy's this tab is for a great Foo Fighters song which is the first single that 
they released, and believe me it's awesome.

This is my First tab, I hope you like it please rate it.

Foo Fighters

Exhausted

Tuning: Drop D


Inrto
e[--1-1-1-1-1--1-1-1-1-1--0-0-0-0-0--0-0-0-0-0--]
G[--3-3-3-3-3--3-3-3-3-3--1-1-1-1-1--1-1-1-1-1--]
B[--2-2-2 2-2--0-0-0-0-0--0-0-0-0-0--2-2-2-2-2--]
D[--0-0-0-0-0--0-0-0-0-0--3-3-3-3-3--2-2-2-2-2--]
A[-------------2-2-2-2-2--3-3-3-3-3-------------]
D[----------------------------------------------]x2

Verse
e[--1-1-1-1-1--1-1-1-1-1--0-0-0-0-0--0-0-0-0-0--]
G[--3-3-3-3-3--3-3-3-3-3--1-1-1-1-1--1-1-1-1-1--]
B[--2-2-2 2-2--0-0-0-0-0--0-0-0-0-0--2-2-2-2-2--]
D[--0-0-0-0-0--0-0-0-0-0--3-3-3-3-3--2-2-2-2-2--]
A[-------------2-2-2-2-2--3-3-3-3-3-------------]
D[----------------------------------------------]x4


Iterlude
e[--0-0-0-0--0-0-0-0--0-0-0-0--0-0-0-0--0-0-0-0--0-0-0-0--]
G[--1-1-1-1--1-1-1-1--1-1-1-1--1-1-1-1--1-1-1-1--1-1-1-1--]
B[--3-3-3-3--3-3-3-3--2-2-2-2--2-2-2-2--0-0-0-0--0-0-0-0--]
D[--3-3-3-3--3-3-3-3--2-2-2-2--2-2-2-2--0-0-0-0--0-0-0-0--]
A[--------------------------------------------------------]
D[--------------------------------------------------------]


Verse
e[--1-1-1-1-1--1-1-1-1-1--0-0-0-0-0--0-0-0-0-0--]
G[--3-3-3-3-3--3-3-3-3-3--1-1-1-1-1--1-1-1-1-1--]
B[--2-2-2 2-2--0-0-0-0-0--0-0-0-0-0--2-2-2-2-2--]
D[--0-0-0-0-0--0-0-0-0-0--3-3-3-3-3--2-2-2-2-2--]
A[-------------2-2-2-2-2--3-3-3-3-3-------------]
D[----------------------------------------------]x4


Iterlude
e[--0-0-0-0--0-0-0-0--0-0-0-0--0-0-0-0--0-0-0-0--0-0-0-0--]
G[--1-1-1-1--1-1-1-1--1-1-1-1--1-1-1-1--1-1-1-1--1-1-1-1--]
B[--3-3-3-3--3-3-3-3--2-2-2-2--2-2-2-2--0-0-0-0--0-0-0-0--]
D[--3-3-3-3--3-3-3-3--2-2-2-2--2-2-2-2--0-0-0-0--0-0-0-0--]
A[--------------------------------------------------------]
D[--------------------------------------------------------]


Chorus
e[-----------------------------------------------------------------]
G[-----------------------------------------------------------------]
B[-----------------------------------------------------------------]
D[-----------------------------------------------------------------]
A[--0-3-5-5-3-0-0-3-5-5------------0-3-5-5-3-0-0-3-5-5-------------]
D[--0-3-5-5-3-0-0-3-5-5-4-5-7-7-7--0-3-5-5-3-0-0-3-5-5-4-5-10-10-10]x2


e[-----]             
G[-----]
B[-----]
D[-----]
A[--0--]
D[--0--]


Interlude 2
e[--1-1-1-1-1--1-1-1-1-1--0-0-0-0-0--------------------------------------
G[--3-3-3-3-3--3-3-3-3-3--1-1-1-1-1--1-1-1-1--1-1-1-1--1-1-1-1--1-1-1-1--
B[--2-2-2 2-2--0-0-0-0-0--0-0-0-0-0--2-2-2-2--2-2-2-2--2-2-2-2--2-2-2-2--
D[--0-0-0-0-0--0-0-0-0-0--3-3-3-3-3--2-2-2-2--2-2-2-2--2-2-2-2--2-2-2-2--
A[-------------2-2-2-2-2--3-3-3-3-3--------------------------------------
D[-----------------------------------------------------------------------

 --------------------------------------------------------------------------]
 --1-1-1-1--1-1-1-1--1-1-1-1--1-1-1-1--1-1-1-1--1-1-1-1--1-1-1-1--1-1-1-1--]
 --3-3-3-3--3-3-3-3--3-3-3-3--3-3-3-3--2-2-2-2--2-2-2-2--2-2-2-2--2-2-2-2--]
 --3-3-3-3--3-3-3-3--3-3-3-3--3-3-3-3--2-2-2-2--2-2-2-2--2-2-2-2--2-2-2-2--]
 --------------------------------------------------------------------------]
 --------------------------------------------------------------------------]


Verse
e[--1-1-1-1-1--1-1-1-1-1--0-0-0-0-0--0-0-0-0-0--]
G[--3-3-3-3-3--3-3-3-3-3--1-1-1-1-1--1-1-1-1-1--]
B[--2-2-2 2-2--0-0-0-0-0--0-0-0-0-0--2-2-2-2-2--]
D[--0-0-0-0-0--0-0-0-0-0--3-3-3-3-3--2-2-2-2-2--]
A[-------------2-2-2-2-2--3-3-3-3-3-------------]
D[----------------------------------------------]x2


Chorus
e[-----------------------------------------------------------------]
G[-----------------------------------------------------------------]
B[-----------------------------------------------------------------]
D[-----------------------------------------------------------------]
A[--0-3-5-5-3-0-0-3-5-5------------0-3-5-5-3-0-0-3-5-5-------------]
D[--0-3-5-5-3-0-0-3-5-5-4-5-7-7-7--0-3-5-5-3-0-0-3-5-5-4-5-10-10-10]x4


Interlude 2
e[--1-1-1-1-1--1-1-1-1-1--0-0-0-0-0--------------------------------------
G[--3-3-3-3-3--3-3-3-3-3--1-1-1-1-1--1-1-1-1--1-1-1-1--1-1-1-1--1-1-1-1--
B[--2-2-2 2-2--0-0-0-0-0--0-0-0-0-0--2-2-2-2--2-2-2-2--2-2-2-2--2-2-2-2--
D[--0-0-0-0-0--0-0-0-0-0--3-3-3-3-3--2-2-2-2--2-2-2-2--2-2-2-2--2-2-2-2--
A[-------------2-2-2-2-2--3-3-3-3-3--------------------------------------
D[-----------------------------------------------------------------------

 --------------------------------------------------------------------------]
 --1-1-1-1--1-1-1-1--1-1-1-1--1-1-1-1--1-1-1-1--1-1-1-1--1-1-1-1--1-1-1-1--]
 --3-3-3-3--3-3-3-3--3-3-3-3--3-3-3-3--2-2-2-2--2-2-2-2--2-2-2-2--2-2-2-2--]
 --3-3-3-3--3-3-3-3--3-3-3-3--3-3-3-3--2-2-2-2--2-2-2-2--2-2-2-2--2-2-2-2--]
 --------------------------------------------------------------------------]
 --------------------------------------------------------------------------]


Outro
e[--1-1-1-1-1--1-1-1-1-1--0-0-0-0-0--0-0-0-0-0--]
G[--3-3-3-3-3--3-3-3-3-3--1-1-1-1-1--1-1-1-1-1--]
B[--2-2-2 2-2--0-0-0-0-0--0-0-0-0-0--2-2-2-2-2--]
D[--0-0-0-0-0--0-0-0-0-0--3-3-3-3-3--2-2-2-2-2--]
A[-------------2-2-2-2-2--3-3-3-3-3-------------]
D[----------------------------------------------]

Do this and then the song eventually fades out so stop when you want.

FINISH!!

Thanks, I hope who like this tab, please rate it. 
Suggest correction
What's this?
You can suggest a correction to this tab. Community and Mods will review your correction and vote to approve or reject it.
comments
We did not receive enough feedback on this tab! Please rate:
print report bad tab
1 2 3 4 5
2 comments total.
0 reply
monstera_z 12 wrote on August 26 2015, 04:00 pm

sounds great, and easy to play.

0 reply
lespaul#1 2,393 wrote on May 14 2016, 02:01 am

Chords are right but chorus is wrong. not off by much but enough to throw off the melody.

guest
You may want to rate the tab now too:
select rating
Please do not post tabs as comments. Select "correction" instead!