Oops, an error
Loading. Please wait.

Febraury Stars Tab

1,515 views 3 this week
no commentswrite comment
1 2 3 4 5
please rate
add to favorites
launch autoscroll
font size
0
reset
how to read this tab
guitar tuner
Autoscroll
slow
fast
+/-
esc
set tempo
stop
Help us to improve Ultimate-Guitar.com Take our survey!
×
#----------------------------------PLEASE NOTE--------------------------------#
#This file is the author's own work and represents their interpretation of the#
#song. You may only use this file for private study, scholarship, or research.#
#-----------------------------------------------------------------------------#

Date: Mon, 20 Apr 1998 13:42:11 PDT
From: AARON THOMAS 
Subject: f/foo_fighters/febraury_stars.tab

Song:February Stars
Album:The Colour and The Shape
Artist:Foo Fighters
Tabbed By:Aaron Thomas in Cross Lake
THIS SONG IS EASY ONCED YOU'RE USED TO IT. THIS ALSO HAS LYRICS.
Main Riffs:
E-5---5---5---5-5---5---5-5---5---5---7-7---7---7-7---7---7---7-|
B-7--7-7-7-7--6--6-6-5-6--5--5-5-5-5--7--7-7-7-7--8--8-8-8-8--7-|
G-7-7---7---7-7---7---7---6-6---6---6-7---7---7---9-9---9---9-7-|
D---------------------------------------------------------------|
A---------------------------------------------------------------|
D---------------------------------------------------------------|

E-7---7---7-5---5---5---|
B--7-7-7-7--6--6-6-6-6--|
G---7---7---7-7---7---7-|
D-----------------------|
A-----------------------|
D-----------------------|

Riff 1
E-5-5-5-5-5-5-5-5-5-5-5-5-7-7-7-7-7-7-7-7-7-7-7-7-5-5-5-5-|
B-7-7-7-7-6-6-6-6-5-5-5-5-7-7-7-7-8-8-8-8-7-7-7-7-6-6-6-6-|
G-7-7-7-7-7-7-7-7-7-7-7-7-7-7-7-7-9-9-9-9-7-7-7-7-7-7-7-7-|
D---------------------------------------------------------|
A---------------------------------------------------------|
D---------------------------------------------------------|

PLAY MAIN RIFFS BUT WITHOUT STRUMMING.JUST PICKING.

Riff 2:
P.M|------------------|
E---------------------|
B---------------------|
G---------------------|
D-5-5-5-5-5-5-5-5-5-0-|
A-5-5-5-5-5-5-5-5-5-0-|
D-5-5-5-5-5-5-5-5-5-0-|

RIFF 3
E--------------------------------------------------|
B--------------------------------------------------|
G---------------7-7-7-------------9-9-9-12-12-12---|
D-5-4-2-0-5-5-5-7-7-7-4-4-4-5-5-5-9-9-9-12-12-12-0-|
A-5-4-2-0-5-5-5-5-5-5-4-4-4-5-5-5-7-7-7-10-10-10-0-|
D-5-4-2-0-5-5-5-------4-4-4-5-5-5----------------0-|
LYRICS:HANGING ON HERE UNTIL I^?M GONE I^?M RIGHT WHERE I BELONG JUST
HANGING ON EVEN THOUGH I WATCHED YOU COME AND GO HOW WAS I TO KNOW YOU^?D
STEAL THE SHOW ONE DAY I^?LL HAVE ENOUGH TO GAMBLE I^?LL WAIT TO HERE YOUR
FINAL CALL AND BET IT ALL HANING ON HERE UNTIL I^?M GONE I^?M RIGHT WHERE
I BELONG JUST HANGING ON YOU ASK FOR WALLS I^?LL BUILD THEM HIGHER WE^?LL
LIE IN SHADOWS OF THEM ALL I^?D STAND BUT THEY^?RE MUCH TOO TALL AND I^?LL
FALL FEBRUARY STARS FLAOTING IN THE DARK TEMPORARY SCARS FEBRAURY STARS
Suggest correction
Give kudos to tab author, rate the tab!
1 2 3 4 5
comments
print report bad tab
guest
You may want to rate the tab now too:
select rating
Please do not post tabs as comments. Select "correction" instead!