Oops, an error
Loading. Please wait.

February Stars Live Acoustic Tab

10,831 views 21 this week
no commentswrite comment
1 2 3 4 5
excellent!
x 28
add to favorites
launch autoscroll
font size
0
reset
how to read this tab
guitar tuner
Tab Pro tools
  • play this tab
  • loop segment
  • change instrument
  • show fretboard
  • metronome
×
Best way to learn
"February Stars Live Acoustic"
Autoscroll
slow
fast
+/-
esc
set tempo
stop
Contributor
Difficulty
novice
Foo Fighters - February Stars (as played on the Skin and Bones CD/DVD)

Album: Skin And Bones - 2006
Instrument: Guitar
Tuning: eBGDAE

All credits to their respective owners, copied from fftabs.com
Tabbed By: FriendlyFoo & Stu Doyle


Intro/Verse 1 - Rhythm gtr.
e|--5--5-5-5-5-5-5--5-5-5-5-5-5--5-5-5-5-5-7--7-7-7-7-7-4--|
B|--8--8-8-8-8-8-7--7-7-7-7-7-7--7-7-7-7-7-8--8-8-8-8-8-5--|
G|--7--7-7-7-7-7-7--7-7-7-7-7-6--6-6-6-6-6-7--7-7-7-7-7-4--|
D|--0--0-0-0-0-0-0--0-0-0-0-0-0--0-0-0-0-0-0--0-0-0-0-0-0--|
A|---------------------------------------------------------|
E|---------------------------------------------------------|

e|--4-4-4-4-4-7--7-7-7-7-7-5--5-5-5-5-5-5-5-5-5-5-5-5-5-5--|
B|--5-5-5-5-5-8--8-8-8-8-8-7--7-7-7-7-7-7-7-7-7-7-7-7-7-7--|
G|--4-4-4-4-4-7--7-7-7-7-7-7--7-7-7-7-7-7-7-7-7-7-7-7-7-7--|
D|--0-0-0-0-0-0--0-0-0-0-0-0--0-0-0-0-0-0-0-0-0-0-0-0-0-0--|
A|---------------------------------------------------------|
E|---------------------------------------------------------|

Intro - Lead gtr.
  G                D       F#/Gbm                                         
e|---------------------------------------------------------------------|
B|---------------------------------------------------------------------|
G|---9b11b9--7--9--9b11----9b11b9--7-----7--9--7-----------7-----9--7--|
D|------------------------------------9-----------9--7--9-----9--------|
A|---------------------------------------------------------------------|
E|---------------------------------------------------------------------|

   G                           E                          G       
e|----------------------------------10---------------------------------|
B|--------------------------------------10-----------------------------|
G|------------7--9b11b9--7-----7h9----------9b11b9--7-----9--7----9/11-|
D|-9----7--9----------------9--------------------------9---------------|
A|---------------------------------------------------------------------|
E|---------------------------------------------------------------------|

                      D
e|---------------------------------------------------------------------|
B|-----10--------------------------------------------------------------|
G|-11------9-11--9b11b9--7--9--7---------------------------------------|
D|--------------------------------9--7------------------------7-----7--|
A|--------------------------------------9--7--5--5--7--5-7/9-----9-----|
E|---------------------------------------------------------------------|

                            G
e|---------------------------------------------------------------------|
B|---------------------------------------------------------------------|
G|----7--9--7--9--7--9/11----12----------------------------------------|
D|-9------------------------12-----------------------------------------|
A|---------------------------------------------------------------------|
E|---------------------------------------------------------------------|

Hangin' on
Here until I'm gone
Right where I belong
Just hangin' on

Even know
I watched you come and go
How was I to know
You'd steal the show


Pre-Chorus 1:
    Bm            DaddG         E
e|--2-------------x-------------0-------------|
B|--3-------------3-------------0-------------|
G|--4-------------2-------------1-------------|
D|--4-------------4-------------2-------------|
A|--2-------------x-------------2-------------|
E|------------------------------0-------------|
  "One day I'll have enough to gamble"

    G             D             E
e|--3-------------3-------------0-------------|
B|--3-------------2-------------0-------------|
G|--0-------------3-------------1-------------|
D|--0-------------0-------------2-------------|
A|--2---------------------------2-------------|
E|--3---------------------------0-------------|
  "I'll wait to hear your final call"

         D
e|-------3-------------|
B|-------2-------------|
G|-------3-------------|
D|-------0-------------|
A|---------------------|
E|---------------------|
  "Bet it all"


Verse 2: (same as above, + pat/chris strummung/picking open chords)
e|--5--5-5-5-5-5-5--5-5-5-5-5-5--5-5-5-5-5-7--7-7-7-7-7-4--|
B|--8--8-8-8-8-8-7--7-7-7-7-7-7--7-7-7-7-7-8--8-8-8-8-8-5--|
G|--7--7-7-7-7-7-7--7-7-7-7-7-6--6-6-6-6-6-7--7-7-7-7-7-4--|
D|--0--0-0-0-0-0-0--0-0-0-0-0-0--0-0-0-0-0-0--0-0-0-0-0-0--|
A|---------------------------------------------------------|
E|---------------------------------------------------------|

e|--4-4-4-4-4-7--7-7-7-7-7-5--5-5-5-5-5-5-5-5-5-5-5-5-5-5--|
B|--5-5-5-5-5-8--8-8-8-8-8-7--7-7-7-7-7-7-7-7-7-7-7-7-7-7--|
G|--4-4-4-4-4-7--7-7-7-7-7-7--7-7-7-7-7-7-7-7-7-7-7-7-7-7--|
D|--0-0-0-0-0-0--0-0-0-0-0-0--0-0-0-0-0-0-0-0-0-0-0-0-0-0--|
A|---------------------------------------------------------|
E|---------------------------------------------------------|

Hangin' on
Here until I'm gone
Right where I belong
Just hangin' on

Even though
I pass this time alone
Somewhere so unknown
It heals the soul


Pre-Chorus 2:
    Bm            DaddG         E
e|--2-------------x-------------0-------------|
B|--3-------------3-------------0-------------|
G|--4-------------2-------------1-------------|
D|--4-------------4-------------2-------------|
A|--2-------------x-------------2-------------|
E|------------------------------0-------------|
  "You ask for walls, I'll build them higher"

    G             D             E
e|--3-------------3-------------0-------------|
B|--3-------------2-------------0-------------|
G|--0-------------3-------------1-------------|
D|--0-------------0-------------2-------------|
A|--2---------------------------2-------------|
E|--3---------------------------0-------------|
  "We'll lie in shadows of them all"

    G             D             E
e|--3-------------3-------------0-------------|
B|--3-------------2-------------0-------------|
G|--0-------------3-------------1-------------|
D|--0-------------0-------------2-------------|
A|--2---------------------------2-------------|
E|--3---------------------------0-------------|           
  "I'd stand but they're much to tall"

          D
e|--------3-------------|
B|--------2-------------|
G|--------3-------------|
D|--------0-------------|
A|----------------------|
E|----------------------|
  "And I fall"

**keep strumming the D, then play the little variation (D*)
as the final verse begins**


Chorus:
    D*            G
e|--3--2--0--2----3-------------|
B|--3--3--3--3----3-------------|
G|--2--2--2--2----0-------------|
D|--0--0--0--0----0-------------|
A|----------------2-------------|
E|----------------3-------------|
  "Fe- bru- ary   stars"

    D            F#m
e|--3-------------2-------------|
B|--2-------------2-------------|
G|--3-------------2-------------|
D|--0-------------4-------------|
A|----------------4-------------|
E|----------------2-------------|
  "Floating in the dark"

    G(barre)      E
e|--3-------------0-------------|
B|--3-------------0-------------|
G|--4-------------1-------------|
D|--5-------------2-------------|
A|--5-------------2-------------|
E|--3-------------0-------------|
  "Temporary stars"

    G             D
e|--3-------------3-------------|
B|--3-------------2-------------|
G|--0-------------3-------------|
D|--0-------------0-------------|
A|--2---------------------------|
E|--3---------------------------|
  "February stars"


_____________________
http://www.fftabs.com
comments
print report bad tab
I want to post or [tab]
guest
You may want to rate the tab now too:
select rating
Please do not post tabs as comments. Select "correction" instead!