Oops, an error
Loading. Please wait.

February Stars Tab

version 2
version 2

Whole song

Interactive

11,058 views 1 this week
4 commentsread comments
1 2 3 4 5
worth learning
x 7
add to favorites
launch autoscroll
font size
0
reset
how to read this tab
guitar tuner
Tab Pro tools
  • play this tab
  • loop segment
  • change instrument
  • show fretboard
  • metronome
×
Best way to learn
"February Stars"
Autoscroll
slow
fast
+/-
esc
set tempo
stop
Contributor
Song: February Stars
Artist: Foo Fighters
Album: The Colour And The Shape
Genre: Rock

(Drop Top String Tuning To D) 

Intro/Verse
e|--5--5---5-----5----3-3---7-7-7---3-3--7-7----5---5------|
B|--8----8-7---7---7--5--5--8----8--5--5-8--8---7-7---7----|
G|--7------7-7------7-4-----7-----7-4----7---7--7-------7--|
D|--0------0----------0-----0-------0----0------0----------| x2
A|---------------------------------------------------------|
D|---------------------------------------------------------|
        hangin on...

e|--2--2---2-----------0----------2-0------------2-0-------|
B|--3----3---3-------3---3------3-----3--------3-----3-----|
G|--4-----------4--4-------4---4---------4-4--4---------4--|
D|---------------------------------------------------------|
A|---------------------------------------------------------|
D|---------------------------------------------------------|
        one day you'll have enough to give more

e|------3-3-3---------0---0-------2-0-----------2-0---0--|
B|----3---3----3--------3---3----3----4-------3----3--3--|
G|--4------------4--4---------4-4-------4-4-4-------4-2--|
D|-------------------------------------------------------|
A|-------------------------------------------------------|
D|-------------------------------------------------------|
         I'll wait to hear you final call

e|--5--5---5-----5----3-3---7-7-7---3-3--7-7----5---5------|
B|--8----8-7---7---7--5--5--8----8--5--5-8--8---7-7---7----|
G|--7------7-7------7-4-----7-----7-4----7---7--7-------7--|
D|--0------0----------0-----0-------0----0------0----------| x2
A|---------------------------------------------------------|
D|---------------------------------------------------------|
         hangin on...

e|--2--2---2-----------0----------2-0------------2-0-------|
B|--3----3---3-------3---3------3-----3--------3-----3-----|
G|--4-----------4--4-------4---4---------4-4--4---------4--|
D|---------------------------------------------------------|
A|---------------------------------------------------------|
D|---------------------------------------------------------|
      You'll ask if the walls are building higher

e|------3-3-3---------0---0-------2-0-----------2-0---0--|
B|----3---3----3--------3---3----3----4-------3----3--3--|
G|--4------------4--4---------4-4-------4-4-4-------4-2--|
D|-------------------------------------------------------|
A|-------------------------------------------------------|
D|-------------------------------------------------------|
       We'll light the shadows of them all

e|--2--2---2-----------0----------2-0------------2-0-------|
B|--3----3---3-------3---3------3-----3--------3-----3-----|
G|--4-----------4--4-------4---4---------4-4--4---------4--|
D|---------------------------------------------------------|
A|---------------------------------------------------------|
D|---------------------------------------------------------|
       I'd stand but they're much too useful and I fall

Chorus
e|------------------------------------------------|
B|------------------------------------------------|
G|-----------------------7--7--7------------------|
D|--5-4--2-0---5--5------7--7--7------4--4--4--4--|
A|--5-4--2-0---5--5------5--5--5------4--4--4--4--|
D|--5-4--2-0---5--5-------------------4--4--4--4--|
   february stars         floating in the dark 

e|--------------------------------------------|
B|--------------------------------------------| (3x)
G|--------------9-9-9--9----12--12--12-12-----|
D|--5---5-------9-9-9--9----12--12--12-12--0--|
A|--5---5-------7-7-7--7----10--10--10-10--0--|
D|--5---5----------------------------------0--|
   temporary 'scar'?       february stars 

Outro
e|---------------------------|
B|---------------------------|
G|---------------------------|
D|--5-5-5-5-5-5-5-5-5-----0--|
A|--5-5-5-5-5-5-5-5-5-----0--|
D|--5-5-5-5-5-5-5-5-5-----0--|
comments
print report bad tab
4 comments total. Showing first comments.
0 reply
CorBe wrote on May 2 2006, 05:57 pm

You did well but never wrote in all the notes between the chords

0 reply
bs5538 wrote on October 3 2006, 09:43 pm

The 3 chord doesnt sound right, try playing 4. Major, not minor.
5 5
4 4
0 x

0 reply
bs5538 wrote on October 3 2006, 09:44 pm

let me correct that...

3 should be 4
5 5
4 4
0 x

I want to post or [tab]
guest
You may want to rate the tab now too:
select rating
Please do not post tabs as comments. Select "correction" instead!