Oops, an error
Loading. Please wait.

February Stars Tab

version 4
version 4

Whole song

Interactive

24,972 views 66 this week
no commentswrite comment
1 2 3 4 5
x 15
add to favorites
launch autoscroll
font size
0
reset
how to read this tab
guitar tuner
backing track
0:00
0:00
×
Best way to learn
"February Stars"
Autoscroll
slow
fast
+/-
esc
set tempo
stop
Author
Tuning: Standard tuning - EADGBe.

[Intro/chorus]
(Part 1)
(Guitar 1)
I'm hanging on...
e|--5------5---5-----5------5-----5---7-----5------4-----4---7------7-------5------5------5----|
B|--8-------8--7------7-7---7------7--8------8-8---5------5--8--------8-8---7-----7-7---7--7---|
G|--7----7-----7----7----7--6----6----7----7----7--4----4----7----7------7--7----7---7-7-7--7--|
D|--0----------0------------0---------0------------0---------0--------------0---------0------0-|
A|---------------------------------------------------------------------------------------------|
E|---------------------------------------------------------------------------------------------|

[Part 2]
(Guitar 1 does the same like in the 1st part)
Even though...
e|--5------5---5-----5------5-----5---7-----5------4-----4---7------7-------5------5------5----|
B|--8-------8--7------7-7---7------7--8------8-8---5------5--8--------8-8---7-----7-7---7--7---|
G|--7----7-----7----7----7--6----6----7----7----7--4----4----7----7------7--7----7---7-7-7--7--|
D|--0----------0------------0---------0------------0---------0--------------0---------0------0-|
A|---------------------------------------------------------------------------------------------|
E|---------------------------------------------------------------------------------------------|

(Guitar 2 plays the chords)
e|--5-------------5-------------5-------------7-------------4-------------7-------------5-----|
B|--8-------------7-------------7-------------8-------------5-------------8-------------7-----|
G|--7--x8---------7--x8---------6--x8---------7--x8---------4--x8---------7--x8---------7--x16|
D|--0-------------0-------------0-------------0-------------0-------------0-------------0-----|
A|--------------------------------------------------------------------------------------------|
E|--------------------------------------------------------------------------------------------|

[Verse]
(Guitar 1)
One day i'll have...
e|--2--2---2-------|------0------|------2-0---------|-----2-0-------|
B|--3----3---3-----|----3---3----|----3-----3-------|---3-----3-----|
G|--4-----------4--|--4-------4--|---4---------4-4--|--4---------4--|
D|-----------------|-------------|------------------|---------------|
A|-----------------|-------------|------------------|---------------|
E|-----------------|-------------|------------------|---------------|

I'll wait to...
e|------3-3-3-------|----0---0------|----2-0--------|------2-0---0--|
B|----3---3----3----|------3---3----|---3----4------|----3----3--3--|
G|--4------------4--|--4---------4--|--4-------4-4--|--4-------4-2--|
D|------------------|---------------|---------------|---------------|
A|------------------|---------------|---------------|---------------|
E|------------------|---------------|---------------|---------------|

... all.
e|--2-------|
B|--3-------|
G|--2--x16--|
D|--0-------|
A|--x-------|
E|--x-------|

[Chorus]
(Now Guitar 1 and Guitar 2 plays together thw whole chorus.)
(Guitar 1)
I'm hanging on/Even though...
e|--5------5---5-----5------5-----5---7-----5------4-----4---7------7-------5------5------5----|
B|--8-------8--7------7-7---7------7--8------8-8---5------5--8--------8-8---7-----7-7---7--7---|
G|--7----7-----7----7----7--6----6----7----7----7--4----4----7----7------7--7----7---7-7-7--7--|
D|--0----------0------------0---------0------------0---------0--------------0---------0------0-|
A|---------------------------------------------------------------------------------------------|
E|---------------------------------------------------------------------------------------------|

(Guitar 2)
e|--5-------------5-------------5-------------7-------------4-------------7-------------5------|
B|--8-------------7-------------7-------------8-------------5-------------8-------------7------|
G|--7--x8---------7--x8---------6--x8---------7--x8---------4--x8---------7--x8---------7--x16-|
D|--0-------------0-------------0-------------0-------------0-------------0-------------0------|
A|---------------------------------------------------------------------------------------------|
E|---------------------------------------------------------------------------------------------|

[Verse]
(Guitar 1)
You'll asked for...
e|--2--2---2-------|------0------|------2-0---------|-----2-0-------|
B|--3----3---3-----|----3---3----|----3-----3-------|---3-----3-----|
G|--4-----------4--|--4-------4--|---4---------4-4--|--4---------4--|
D|-----------------|-------------|------------------|---------------|
A|-----------------|-------------|------------------|---------------|
E|-----------------|-------------|------------------|---------------|

We'll lie in...
e|------3-3-3-------|----0---0------|----2-0--------|------2-0---0--|
B|----3---3----3----|------3---3----|---3----4------|----3----3--3--|
G|--4------------4--|--4---------4--|--4-------4-4--|--4-------4-2--|
D|------------------|---------------|---------------|---------------|
A|------------------|---------------|---------------|---------------|
E|------------------|---------------|---------------|---------------|

I'd stand...
e|------3-3-3-------|----0---0------|----2-0--------|------2-0---0--|
B|----3---3----3----|------3---3----|---3----4------|----3----3--3--|
G|--4------------4--|--4---------4--|--4-------4-4--|--4-------4-2--|
D|------------------|---------------|---------------|---------------|
A|------------------|---------------|---------------|---------------|
E|------------------|---------------|---------------|---------------|

... fall.
e|--2-------|
B|--3-------|
G|--2--x16--|  
D|--0-------|
A|--x-------|
E|--x-------|

(Guitar 2)
   FE-  BRU- ARY STARS   FLOA- TING IN THE DARK  TEM- POR- ARY SCARS
e|--5----5----5----7-------5----5----5----5-------5----5----5----4----------|
B|--8----7----5----8-------8----7----5----5-------8----7----5----5----------|
G|--7----7----7----7-------7----7----7----6-------7----7----7----4----------|
D|--0----0----0----0-------0----0----0----7-------0----0----0----0----------|
A|--------------------------------------------------------------------------|
E|--------------------------------------------------------------------------|

   FE-  BRU- ARY STARS
e|--5----5----5----5--------------------------------------------------------|
B|--8----7----5----7--------------------------------------------------------|
G|--7----7----7----7--------------------------------------------------------|
D|--0----0----0----0--------------------------------------------------------|
A|--------------------------------------------------------------------------|
E|--------------------------------------------------------------------------|


************************************

| x  Dead note

************************************
Suggest correction
comments
print report bad tab
guest
You may want to rate the tab now too:
select rating
Wanna post a correction for this tab? Suggest correction