Oops, an error
Loading. Please wait.

Foo Fighters Acoustic Collection Tab

130,604 views 48 this week
2 commentsread comments
1 2 3 4 5
accurate
x 25
add to favorites
launch autoscroll
font size
0
reset
how to read this tab
guitar tuner
Autoscroll
slow
fast
+/-
esc
set tempo
stop
Help us to improve Ultimate-Guitar.com Take our survey!
×
Foo Fighters - Walking After You
(Normal Tuning)


Intro/Fill 1
(Gtr. 1)
   E
e|-0------||-0----------|
B|--0-----||---0---0----|
G|---1----||-----1------| (Upstroke on the E)
D|----2---||----------2-|
A|-----2--||----------2-|
E|------0-||----------0-|

(Gtr. 2)
N.C. 
e|-0---2---4---0---5---4---2---0---4-|
B|---0---0---0---0---0---0---0---0---|
G|-1---2---4---1---6---4---2---1---4-|
D|-----------------------------------|
A|-----------------------------------|
E|-----------------------------------|


Verse
   E    E5/G#    A  Bbdim     A  B7(add E) 
e|-0------0------0----0-------0----0-|
B|-0------0------2----2-------2----0-|
G|-1------4------2----3-------2----2-|
D|-2------2------2----2-------2----1-|
A|-2------x------0----1-------0----2-|
E|-0------4--------------------------|
  "Tonight I'm tangled in my [...]"

Fill 2
(Gtr. 1)
   E
e|-0-|
B|-0-|
G|-1-|
D|-2-|
A|-2-|
E|-0-|

(Gtr. 2)
N.C. 
e|-0---2---4---0---5---4---2---0---|
B|---0---0---0---0---0---0---0---0-|
G|-1---2---4---1---6---4---2---1---|
D|---------------------------------|
A|---------------------------------|
E|---------------------------------|


Chorus 1
  F#7(add B) Asus2     E 
e|-0-----------0-------0-|
B|-0-----------0-------0-|
G|-3-----------2-------1-|
D|-4-----------2-------2-|
A|-4-----------0-------2-|
E|-2-------------------0-|
  "If you walk out on me [...]"


Chorus 2 
   C#m   Asus2 F#7(add B) 
e|-(0)-----0-------0-|
B|--5------0-------0-|
G|--6------2-------3-|
D|--6------2-------4-|
A|--4------0-------4-|
E|-----------------2-|
  "Another heart is cracked [...]"


Interlude
(Gtr. 1)
   E
e|-0-|
B|-0-|
G|-1-|
D|-2-|
A|-2-|
E|-0-|

(Gtr. 2)
N.C. 
e|-0---2---4---0---5---4---2---0---|
B|---0---0---0---0---0---0---0---0-|
G|-1---2---4---1---6---4---2---1---|
D|---------------------------------|
A|---------------------------------|
E|---------------------------------|

N.C.
e|-0---2---4---0---5---4---2---0---|
B|---0---0---0---0---0---0---0---0-|
G|-1---2---4---1---6---4---2---1---|
D|---------------------------------|
A|---------------------------------|
E|---------------------------------|

N.C. 
e|-0---2---4---0---5---4---2---0---2-----2-----2-----2---2-|
B|---0---0---0---0---0---0---0---0-----0-----0-----0-------|
G|-1---2---4---1---6---4---2---1---3-3-----3-----3-----3---|
D|---------------------------------------------------------|
A|---------------------------------------------------------|
E|---------------------------------------------------------|


Outro
(Gtr. 1)
   E
e|-0-|
B|-0-|
G|-1-|
D|-2-|
A|-2-|
E|-0-|

(Gtr. 2)
N.C. 
e|-0---2---4---0---5---4---2---0---|
B|---0---0---0---0---0---0---0---0-|
G|-1---2---4---1---6---4---2---1---|
D|---------------------------------|
A|---------------------------------|
E|---------------------------------|

N.C.
e|-0---2---4---0---5---4---2---0---|
B|---0---0---0---0---0---0---0---0-|
G|-1---2---4---1---6---4---2---1---|
D|---------------------------------|
A|---------------------------------|
E|---------------------------------|

N.C. 
e|-0---2---4---0---5---4---2---0---4-|
B|---0---0---0---0---0---0---0---0---|
G|-1---2---4---1---6---4---2---1---4-|
D|-----------------------------------|
A|-----------------------------------|
E|-----------------------------------|


Lyrics/Song Structure
=====================
---> Play Intro 
---> Play Verse over: 
Tonight I'm tangled in my 
Blanket of clouds 
Dreaming aloud 
Things just won't do without you 
Matter of fact 
I'm on your back 
I'm on your back 
I'm on your back 
---> Play Fill 2 
---> Play Chorus 1 over: 
If you walk out on me 
I'm walking after you 
If you walk out on me 
I'm walking after you 
---> Play Fill 1 
---> Play Verse over: 
If you'd accept surrender 
I'll give up some more 
Weren't you adored? 
I cannot be without you 
Matter of fact 
I'm on your back 
I'm on your back 
I'm on your back 
---> Play Fill 2 
---> Play Chorus 1 over: 
If you walk out on me 
I'm walking after you 
If you walk out on me 
I'm walking after you 
---> Play Chorus 2 over: 
Another heart is cracked 
In two 
I'm on your back 
---> Play Interlude 
---> Play Verse over: 
I cannot be without you 
Matter of fact 
I'm on your back 
---> Play Fill 2 
---> Play Chorus 1 over: 
If you walk out on me 
I'm walking after you 
If you walk out on me 
I'm walking after you 
If you walk out on me 
I'm walking after you 
---> Play Chorus 2 over: 
Another heart is cracked 
In two 
I'm on your back 
---> Play Ending

---------------------------------------------------------------------------

Foo Fighters - See You
(Normal Tuning)


Intro
e||----3----||
B||----2----||
G||----2----||
D||----2----||
A||----0----||
E||---------||


Verse
e||--1----0----3----1----0----3--||
B||--1----0----2----1----0----2--||
G||--2----1----2----2----1----2--||
D||--3----2----2----3----2----2--||
A||--3----2----0----3----2----0--||
E||--1----0---------1----0-------||


Chorus
e||--3----2---3---2---3---2---1-------1---0----3--||
B||--2----3---2---3---2---3---1---2---1---0----2--||
G||--2----2---2---2---2---2---2---2---2---1----2--||
D||--2----0---2---0---2---0---3---2---3---2----2--||
A||--0--------0-------0-------3---0---3---2----0--||
E||---------------------------1-------1---0-------||


Bridge
e||--3------3------5------6------3-----1-----0-------3--||
B||--3------3------5------6------3-----1-----0-------2--||
G||--4------4------5------7------4-----2-----1-------2--||
D||--5------5------7------8------5-----3-----2-------2--||
A||--5------5------7------8------5-----3-----2-------0--||
E||--3------3------5------6------3-----1-----0----------||


______________________
Foo Fighters - See You
(Normal Tuning)


Chords
    A7  F7  E7  G7  C7  D7  Ab7
e|--5---1---0---3---8---10---4--|
B|--5---1---0---3---8---10---4--|
G|--6---2---1---4---9---11---5--|
D|--5---1---2---3---8---10---4--|
A|--7---3---2---5---10--12---6--|
E|--5---1---0---3---8---10---4--|


(Verse)
A7       F7                E7               A7
         These notes are marked return to sender

F7             E5             A7
I'll save this letter for my---self

F7           E7
I wish only new


(Chorus)
A7               D7
How good it is to see you

A7               D7
                  see you

A7               D7
                  see you

Ab7      A7
ooooohh   ooh

F7          E7           A7
ooo ooo     ooo ooo ooo ooo  


(Bridge)
G5                                        A7       C7
I'm done resenting you, you represented me so well

G5                     F7                           E7
And this I promise you, how could I end up in the hands of someone else

----------------------------------------------------------------------------
Foo Fighters - A320 (acoustic)
(Normal Tuning)




Intro
e|-----------------------------|
b|-----------------------------| (Repeat several times)
g|-----------------------------|
d|-----------------------------|
a|----5---5---4---4b5p4-2-0----|
e|--3---3---3---3-----------2--|


Verse

"There's a place I'd love to go"
"Strangers takin' me there"

e|--3-3-3-3-3-3-3-3-3-3-3-3-3-3-3-3-3-3-3-3-3-3--|
b|--3-3-3-3-3-3-3-3-3-3-3-3-3-3-3-3-3-3-3-3-3-3--|
g|--0-0-0-0-0-0-0-0-0-0-0-0-0-0-0-0-0-0-0-0-0-0--|
d|--0-0-0-0-0-0-0-0-0-0-0-0-0-0-0-0-0-0-0-0-0-0--|
a|--2-2-2-2-2-x-x-x-x-x-2-2-2-2-2-2-0-0-0-0-0-0--|
e|--3-3-3-3-3-2-2-2-2-2-3-3-3-3-3-3-2-2-2-2-2-2--|

"I dream about the day I learned to fly"

e|------------0--------3-3-3-3-3-3-3-3-3-3-3--|
b|--------------3------4-4-4-4-4-4-6-6-6-6-6--|
g|----------------0----5-5-5-5-5-5-5-5-5-5-5--|
d|--------2---------2--5-5-5-5-5-5-5-5-5-5-5--|
a|----2----------------3-3-3-3-3-3-3-3-3-3-3--|
e|--0---0---0---------------------------------|


Bridge - (* = either strum, or let ring)
e|--3-3-3-3-3-3-3-3-3-3-3-3-3-3-3-3-3-3-3-3-3-3--|
b|--3-3-3-3-3-3-3-3-3-3-3-3-3-3-3-3-3-3-3-3-3-3--|
g|--0-0-0-0-0-0-0-0-0-0-0-0-0-0-0-0-0-0-0-0-0-0--|
d|--0-0-0-0-0-0-0-0-0-0-0-0-0-0-0-0-0-0-0-0-0-0--|
a|--2-2-2-2-2-x-x-x-x-x-2-2-2-2-2-2-0-0-0-0-0-0--|
e|--3-3-3-3-3-2-2-2-2-2-3-3-3-3-3-3-2-2-2-2-2-2--|

"Close my eyes and hope that it's a"

e|-----------------------------|
b|-----------------------------|
g|--2*-------------------------|
d|--2*-------------------------|
a|--0*-------------------------|
e|-----------------------------|

"real smooth flight"

e|--0--------------------------|
b|--0--------------------------|
g|--0--------------------------|
d|--3--------------------------|
a|--3--------------------------|
e|--1--------------------------|

"This time"

e|--3-3-3-3-3-3-3-3-3-3-3-3-3-3-3-3-3-3-3-3-3-3--|
b|--3-3-3-3-3-3-3-3-3-3-3-3-3-3-3-3-3-3-3-3-3-3--|
g|--0-0-0-0-0-0-0-0-0-0-0-0-0-0-0-0-0-0-0-0-0-0--|
d|--0-0-0-0-0-0-0-0-0-0-0-0-0-0-0-0-0-0-0-0-0-0--|
a|--2-2-2-2-2-x-x-x-x-x-2-2-2-2-2-2-0-0-0-0-0-0--|
e|--3-3-3-3-3-2-2-2-2-2-3-3-3-3-3-3-2-2-2-2-2-2--|

"Close my eyes and hope that it's a"

e|-----------------------------|
b|-----------------------------|
g|--2*-------------------------|
d|--2*-------------------------|
a|--0*-------------------------|
e|-----------------------------|

"real smooth flight"

e|--0--------------------------|
b|--0--------------------------|
g|--0--------------------------|
d|--3--------------------------|
a|--3--------------------------|
e|--1--------------------------|

Repeat point

"And"

e|--3-3-3-3-3-3-3-3-3-3-3-3-3-3-3-3-3-3-3-3-3-3--|
b|--3-3-3-3-3-3-3-3-3-3-3-3-3-3-3-3-3-3-3-3-3-3--|
g|--0-0-0-0-0-0-0-0-0-0-0-0-0-0-0-0-0-0-0-0-0-0--|
d|--0-0-0-0-0-0-0-0-0-0-0-0-0-0-0-0-0-0-0-0-0-0--|
a|--2-2-2-2-2-x-x-x-x-x-2-2-2-2-2-2-0-0-0-0-0-0--|
e|--3-3-3-3-3-2-2-2-2-2-3-3-3-3-3-3-2-2-2-2-2-2--|

"it's good, this time"

e|--3-3-3-3-3-3-3-3-3-3-3-3-3-3-3-3-3------------3--|
b|--3-3-3-3-3-3-3-3-3-3-3-3-3-3-3-3-3------------3--|
g|--0-0-0-0-0-0-0-0-0-0-0-0-0-0-2-2-2------------0--|
d|--0-0-0-0-0-0-0-0-0-0-2-2-0-0-2-2-2-0-0--------0--|
a|--2-2-2-2-2-0-0-0-0-0-3-3-2-2-0-0-0-2p0--2-(2)-2--|
e|--3-3-3-3-3-2-2-2-2-2--------------------3p0---3--|

Repeat for "I looked down and on the ground"

----------------------------------------------------------------------------
Aurora (acoustic)
I have one, here's a slightly simpler version of it. 


Verse chords
A A(F#) Amaj7
e||------------0--||
b||--2----2----2--||
g||--2----2----1--||
d||--2----2----2--||
a||--0----0----0--||
e||-------2*------||
* = Thumb

e||----------------------------------||
b||----------------------------------||
g||----------------------------------||
d||--7-6-7--11-12--9-14-9--7--11-12--||
a||--000000000000000000000000000000--||
e||----------------------------------||


Chorus
A Amaj7 A
Hell yeah I remember aurora x2
All this time
e||-----------0--||
b||--3--------2--||
g||--4--------3--|| 

e||-----------------------------------------||
b||-----------------------------------------||
g||--7-7-7-7-9-9-9-11-11-11-14-14-14-13-14--||
d||-----------------------------------------||
a||--5-5-5-5-7-7-7-9--9--9--12-12-12-11-12--||
e||-----------------------------------------||

A Amaj7 A
Hell yeah I remember aurora 
D A 
Take me now
D A
we can spin the sun around
D A 
Ans the stars we all come down
F G A+Fill1(below)
Then we'll turn and come back down
F G A
Turn and come back down 
Fill 1
e||--------||
b||-3-2-0--||


Bridge 
On and on and on aurora 
e||--0-0-0-0-0-0-0-------------|-0-0-0-0-0-0-0-------------|
b||--0-0-0-0-0-0-0-------------|-0-0-0-0-0-0-0-------------|
g||--3-3-3-3-3-3-3-------------|-1-1-1-1-1-1-1-------------|
d||--4-4-4-4-4-4-4-------------|-2-2-2-2-2-2-2-------------|
a||--4-4-4-4-4-4-4-4-4-4-4-2-0-|-2-2-2-2-2-2-2-4-4-4-4-2-0-|
e||--2-2-2-2-2-2-2-------------|-0-0-0-0-0-0-0-------------|
Wait for everyone

e|-1-1-1-1-3-5---------------||
b|-1-1-1-1-3-5---------------||
g|-2-2-2-2-4-6---------------||
d|-3-3-3-3-5-7---------------||
a|-3-3-3-3-5-7-*4-4-4-4-2-0--||
e|-1-1-1-1-3-5---------------||
* = not second time
----------------------------------------------------------------------------
Foo Fighters - Breakout (acoustic)
(Normal Tuning)


Intro
     B           E5         C#5           C5
e||--0-----------0-----------0------------0---||
B||--0-----------0-----------0------------0---||
G||--8-----------9-----------10-----------9---|| (2x)
D||--9-----------9-----------11-----------10--||
A||--9-----------7-----------11-----------10--||
E||--7-----------7-----------9------------8---||
You make me dizzy, running circles in my head
One of these days I'll chase you down

     B          E5        C#5              C5
e||--0-0-0-0-0--0-0-0-0-0--0--0--0--0--0---0--0--0--0--0---||
B||--0-0-0-0-0--0-0-0-0-0--0--0--0--0--0---0--0--0--0--0---||
G||--8-8-8-8-8--9-9-9-9-9--10-10-10-10-10--9--9--9--9--9---|| (2x)
D||--9-9-9-9-9--9-9-9-9-9--11-11-11-11-11--10-10-10-10-10--||
A||--9-9-9-9-9--7-7-7-7-7--11-11-11-11-11--10-10-10-10-10--||
E||--7-7-7-7-7--7-7-7-7-7--9--9--9--9--9---8--8--8--8--8---||
Well look whose going crazy now, we're face to face my friend
Better get ou-ou-out, better get out


Chorus
     B5  G   B5  E   G  A Em7 A  G
e||--0---3---0---0-|-3--3--3--3--3--||
B||--0---3---0---0-|-3--3--3--3--3--||
G||--4---0---4---1-|-0--2--0--2--0--|| (2x)
D||--4---0---4---2-|-0--2--2--2--0--||
A||--2---2---2---2-|-2--0--2--0--2--||
E||------3-------0-|-3-----0-----3--||
                   (2x)
You know you make me break out, make me break out
I don't want to look like that
I don't want to look like that
You know you make me break out, make me break out
I don't want to look like that
I don't want to look like that, you know you make me break out


Bridge 1
     B5              G
e||--0-0-0-0-0-0-0-0-3-3-3-3-3-3--||
B||--0-0-0-0-0-0-0-0-3-3-3-3-3-3--||
G||--4-4-4-4-4-4-4-4-0-0-0-0-0-0--||
D||--4-4-4-4-4-4-4-4-0-0-0-0-0-0--||
A||--2-2-2-2-2-2-2-2-2-2-2-2-2-2--||
E||------------------3-3-3-3-3-3--||
You can see this on my face, It's all for you 
The more and more I take, I break right through

     G5          E5
e||--0-0-0-0-0-0-0-0-0-0-0--||
B||--0-0-0-0-0-0-0-0-0-0-0--||
G||--4-4-4-4-4-4-1-1-1-1-1--||
D||--5-5-5-5-5-5-2-2-2-2-2--||
A||--5-5-5-5-5-5-2-2-2-2-2--||
E||--3-3-3-3-3-3-0-0-0-0-0--||
Therapy still scares me,
Putting me on my back again


     B       E5     C#5       C5
e||--0-------0-------0--------0---||
B||--0-------0-------0--------0---||
G||--8-------9-------10-------9---|| (2x)
D||--9-------9-------11-------10--||
A||--9-------7-------11-------10--||
E||--7-------7-------9--------8---||
I may be crazy, little frayed around the ends
One of these days I'll phase you out

     B          E5        C#5              C5
e||--0-0-0-0-0--0-0-0-0-0--0--0--0--0--0---0--0--0--0--0---||
B||--0-0-0-0-0--0-0-0-0-0--0--0--0--0--0---0--0--0--0--0---||
G||--8-8-8-8-8--9-9-9-9-9--10-10-10-10-10--9--9--9--9--9---|| (2x)
D||--9-9-9-9-9--9-9-9-9-9--11-11-11-11-11--10-10-10-10-10--||
A||--9-9-9-9-9--7-7-7-7-7--11-11-11-11-11--10-10-10-10-10--||
E||--7-7-7-7-7--7-7-7-7-7--9--9--9--9--9---8--8--8--8--8---||
Burn it in the blast off
Burn it in the blast off
Watching me crawl away
Try to get out, try to get out


Bridge 2 (Coda)
     B5  A5  C#5 E5
e||--0-0-0-0-0-0-0-0--||
B||--0-0-0-0-0-0-0-0--||
G||--4-4-2-2-6-6-9-9--||
D||--4-4-2-2-6-6-9-9--||
A||--2-2-0-0-4-4-7-7--||
E||-------------------||
Break out! Break out!
Go, go, go!

Make me break out..
Yeah!

----------------------------------------------------------------------------
Foo Fighters - Everlong (acoustic)
(Drop D tuning)


Intro/Verse
e|----------------------------------------------------------------------|
B|----------------------------------------------------------------------|
G|------11---11-11-11-----11--11-11-----11---11-11-----11---11-11-11-11-|
D|------11---11-11-11-----11--11-11-----11---11-11-----11---11=11-11-11-|
A|------9----9--9--9------9---9--9------9----9--9------9----9--9--9--9--|
D|--0-0----0----------0-0---0-------9-9----9-------9-9----9-------------|

e|--------------------------------------------------------------------|
B|--------------------------------------------------------------------|
G|------7-7-7-7-7-7-7------11-11-11-11-11-11-11-11-11-11-11-11-11-11--|
D|------7-7-7-7-7-7-7------11-11-11-11-11-11-11-11-11-11-11-11-11-11--|
A|------5-5-5-5-5-5-5------9--9--9--9--9--9--9--9---9--9--9--9--9--9--|
D|--5-5-----5---5------9-9-------9--9--------9--9---------9--9--------|


Riff - At some point in the song I think dave plays this once
e|------------------------------|
B|------------------------------|
G|-----9--9-----9--9--9--11-9---|
D|-----11-11----11-11-11-11-11--|
A|-----9--9-----9--9--9--9--9---|
D|-0-0------0-0-----------------|


Pre-Chorus
e|-----------------------------------------------------|
B|-----------------------------------------------------|
G|--6-6-6/7-7-7/9-9-9/11-11-11/12-12-12----------------|
D|----------------------------------------7-7-7-7-7-7--|
A|--4-4-4/5-5-5/7-7-7/9--9--9//10-10-10/--7-7-7-7-7-7--|
D|----------------------------------------7-7-7-7-7-7--|


Chorus
e|--------------------------------------------------------|
b|--------------------------------------------------------|
g|---------------------------7-7-7-7--7-7--7-7-7-7--7-7-7-|
d|--9-9--9-9-9--5-5-5-5--5-5-7-7-7-7--7-7--7-7-7-7--7-7-7-|
a|--9-9--9-9-9--5-5-5-5--5-5-5-5-5-5--5-5--5-5-5-5--5-5-5-|
D|--9-9--9-9-9--5-5-5-5--5-5------------------------------|
 (2X)

  PM----|
e|----------------------------------------------------------------------|
B|----------------------------------------------------------------------|
G|--------------------------7-7-7-7--7-7--------------------------------|
D|-9-9--9-9-9--5-5-5-5--5-5-7-7-7-7--7-7--7--7-7--7-7---5-5--5--5-5-5-5-|
A|-9-9--9-9-9--5-5-5-5--5-5-5-5-5-5--5-5--7--7-7--7-7---5-5--5--5-5-5-5-|
D|-9-9--9-9-9--5-5-5-5--5-5---------------7--7-7--7-7---5-5--5--5-5-5-5-|

  PM----|
e|------------------------------|
B|------------------------------|
G|------------------------------|
D|-5--5-5-5-5--5--5-5-5-5--5-5--|
A|-5--5-5-5-5--5--5-5-5-5--5-5--|
D|-5--5-5-5-5--5--5-5-5-5--5-5--|


Breakdown


Play Intro/Verse then this one.

e|----------------------------------------|
B|----------------------------------------|
G|--6-6-6/7-7-7/9-9-9/11-11-11/12-12-12---|
D|----------------------------------------|
A|--4-4-4/5-5-5/7-7-7/9--9--9//10-10-10/--|
D|----------------------------------------|
(4x)

----------------------------------------------------------------------------
Foo Fighters - My Hero (acoustic)
(Normal Tuning)


Intro
     E     C#
e||--0-0-0-4-4-4-4-4-4-4-4-4--||
B||--0-0-0-4-4-7-4-4-4-7-5-5--||
G||--1-1-1-4-4-4-4-4-4-4-4-4--||
D||--2-2-2-6-6-6-6-6-6-6-6-6--||
A||--2-2-2-4-4-4-4-4-4-4-4-4--||
E||--0-0-0--------------------||


Little riff 1
e||---------------||
B||---------------||
G||---------------||
D||---------------||
A||------4-2------||
E||--2-2-----4-5--||


Verse
     E     C#                    E     C#
e||--0-0-0-4-4-4-4-4-4-4-4-4-4-|-0-0-0-4-4-4-4-4-4-4-4-4--||
B||--0-0-0-4-4-4-4-4-4-4-4-4-4-|-0-0-0-4-4-7-4-4-4-7-5-5--||
G||--1-1-1-4-4-4-4-4-4-4-4-4-4-|-1-1-1-4-4-4-4-4-4-4-4-4--||
D||--2-2-2-6-6-6-6-6-6-6-6-6-6-|-2-2-2-6-6-6-6-6-6-6-6-6--||
A||--2-2-2-4-4-4-4-4-4-4-4-4-4-|-2-2-2-4-4-4-4-4-4-4-4-4--||
E||--0-0-0---------------------|-0-0-0--------------------||


Chorus (sometimes Dave adds the E opened to some of these octaves)
e||--------------------------------------|-------------------------------------|
B||--------------------------------------|-------------------------------------|
G||----------8-8-8-8-9-9-9-9-11-11-11-11-|---------8-8-8-8-9-9-9-9-11-11-11-11-|
D||--7-7-7-7-x-x-x-x-x-x-x-x-x--x--x--x--|-2-2-2-2-x-x-x-x-x-x-x-x-x--x--x--x--|
A||--x-x-x-x-6-6-6-6-7-7-7-7-9--9--9--9--|-2-2-2-2-6-6-6-6-7-7-7-7-9--9--9--9--|
E||--5-5-5-5-----------------------------|-0-0-0-0-----------------------------|
  (2x)

e|------------------------------------------||
B|------------------------------------------||
G|---------11-11-11-11-13-13-13-13-8-8-8-8--||
D|-2-2-2-2-x--x--x--x--x--x--x--x--x-x-x-x--||
A|-2-2-2-2-9--9--9--9--11-11-11-11-6-6-6-6--||
E|-0-0-0-0----------------------------------||


Little riff 2
e||--0-0-0-0--||
B||--4-5-4-0--||
G||--------4--||
D||-----------||
A||-----------||
E||-----------||


Bridge
     E     C#
e||--0-0-0-4-4-4-4-4-4-4-4-4--||
B||--0-0-0-4-4-4-4-4-4-4-4-4--||
G||--1-1-1-4-4-4-4-4-4-4-4-4--||
D||--2-2-2-6-6-6-6-6-6-6-6-6--||
A||--2-2-2-4-4-4-4-4-4-4-4-4--||
E||--0-0-0--------------------||


Outro (add this at the end of the last chorus, then little riff 1)
e||---------------------------------------------||
B||---------------------------------------------||
G||--13-13-13-13-13-13-13-13-13-13-13-13-13-13--||
D||---x--x--x--x--x--x--x--x--x--x--x--x--x--x--||
A||--11-11-11-11-11-11-11-11-11-11-11-11-11-11--||
E||---------------------------------------------||

All taken from
http://tabs.foofighters.com

Re-made by-J.B
Thanks to- http://tabs.foofighters.com
Suggest correction
What's this?
You can suggest a correction to this tab. Community and Mods will review your correction and vote to approve or reject it.
comments
print report bad tab
2 comments total. show 1 bad comment
-1 reply
zacknnothinsafe 10 wrote on November 7 2009, 12:43 pm

the hell with what he said man..see how many people gave you 5 stars? thats what you deserve...it sounds good to me..for someone to tab these songs by ear and come up with the idea like no one else id is good for you man..great job :D

guest
You may want to rate the tab now too:
select rating
Please do not post tabs as comments. Select "correction" instead!