Oops, an error
Loading. Please wait.

Foo Fighters Tab

77,882 views 84 this week
5 commentsread comments
1 2 3 4 5
x 18
add to favorites
×
Save as Personal and add changes to this tab that will be seen only by you. Learn more ›
×
You can save this tab as Personal to edit and correct it or add notes. All changes will be seen only by you. Learn more »
save as personal
new!
launch autoscroll
font size
0
reset
how to read this tab
guitar tuner
Autoscroll
slow
fast
+/-
esc
set tempo
stop
Author
Standard tuning in all song unless i say

1.This is a Cell

[Intro/Verse]
     E       E      G      A      E       G G    E
e|--0-------0------3-------------0-------3-3----0--|
B|--0-------0------3------2------0-------3-3----0--|
G|--1-------1------0------2------1-------0-0----1--|
D|--2-------2------0------2------2-------0-0----2--|
A|--2-------2------2------0------2-------2-2----2--|
E|--0-------0------3-------------0-------3-3----0--|

[Chorus]
   (rhythm guitar)
    F#5        A       E     F#5   A   E    G
e|--0---------0-------0------0----0---0----3--|
B|--0---------2-------0------0----2---0----3--|
G|--3---------2-------1------3----2---1----0--|
D|--4---------2-------2------4----2---2----0--|
A|--4---------0-------2------4----0---2----2--|
E|--2-----------------0------2--------0----3--|

(lead guitar)
e|-------0-------0-------0-----0-------0-------0--|-----0--0-0---------------------||
B|----0-----0---------0----0--------0-----0-------|---0----0-0--(last--------------||
G|--3----------3----2--------2----1----------1----|-1------1-1---time--------------||
D|------------------------------------------------|--------------only)-------------||
A|------------------------------------------------|--------------------------------||
E|------------------------------------------------|--------------------------------||

[Bridge]
e|---------------------------------------|
B|------------------------4---7----------|
G|---------7--------------4---7----------|
D|---------6----5-6-2-----4---7----5--5--|
A|---------7----5-6-2-----2---5----5--5--|
E|--0--0---0----3-4-0-----2---5----3--3--|

[Outro]
e|-----------------------------------------------------------------------------|
B|-----------------------------------------------------------------------------|
G|-----------------------------------------------------------------------------|
D|-----------------------------------------------------------------------------|
A|---------5---------5-4-5---------5-------5-4-5---------11---------11-10--11--|
E|--0--0-------0--0----------0--0-----0-0----------0--0-------0--0-------------|

e|-----------------------------------------------------------------------------|
B|-------------------------------------------------------------------3---------|
G|-------------------------------------------------------------------0---------|
D|-------------------------------------------------------------------0---2--2--|
A|-------11------11-10-11-------11-------11-10-11--------11/5--------x---2--2--|
E|--0--0-----0-0-----------0--0----0--0------------0--0--------0--0--3---0--0--|

[2. Stick Around]
[Intro/Pre-Chorus]
(Guitar 1)
e|----------X--X--X-------3-|---------X--X--X----------|
B|----------4--4--4-------3-|---------4--4--4----------|
G|----------3--3--3--3/5----|---------3--3--3--3/5--3--|
D|--5--5----1--1--1--3/5----|-5--5----1--1--1--3/5--3--|
A|--5--5----1--1--1--1/3----|-5--5----1--1--1--1/3-----|
E|--3--3--------------------|-3--3---------------------|
  (3x)                       (4x)

(Guitar 2)
e|-----------------------------|----------------------------|
B|-----------------------------|----------------------------|
G|----------8--8--8---------10-|---------8--8--8------------|
D|--5--5----8--8--8--8--10--10-|-5--5----8--8--8--8--10--8--|
A|--5--5----6--6--6--8--10--8--|-5--5----6--6--6--8--10--8--|
E|--3--3-------------6--8------|-3--3-------------6--8---6--|
  (3x)                          (4x)

[Verse]
e|--10-----------10--|-----------------|----------------|
B|--8------------8-\-|-\6-----------6\-|-\5-------------|
G|--0---  strum  0-\-|-\0--  strum  0\-|-\0--  strum  --|
D|--9---  chord  9-\-|-\7--  chord  7\-|-\7--  chord  --|
A|--10-----------10\-|-\8-----------8\-|-\7-------------|
E|-------------------|-----------------|----------------|
   I thought I         knew all it       took to bother

e|-----------------|----------------|----------------|-----------------|
B|--8--------------|--6-------------|--5-------------|--8--------------| Repeat
G|--0---  strum  --|--0--  strum  --|--0--  strum  --|--0---  strum  --| last
D|--9---  chord  --|--8--  chord  --|--7--  chord  --|--9---  chord  --| bar
A|--10-------------|--8-------------|--7-------------|--10-------------| once
E|-----------------|----------------|----------------|-----------------|
   you     Every word I said was true and that you'll see...

[Bridge]
e|----------------|--3-------------|--0------------------|
B|--3-------------|--3-------------|--1--  strum once  --|
G|--0--  strum  --|--0--  strum  --|--3--  then        --| Repeat once but
D|--3--  chord  --|--0--  chord  --|--2--  arpeggiate  --| second time strum
A|--1-------------|--2-------------|--3--  chord       --| last chord w/
E|----------------|--3-------------|---------------------| palm muting
   I've taken        all and i've en-dured
   One day it        all will fade i'm sure

[Chorus]
e|--X-------------|--1-------------|--3-------------|--2-2-2-0---2-2-|
B|--4-------------|--1-------------|--3-------------|--3-3-3-3---3-3-|
G|--3--  strum  --|--2--  strum  --|--0--  strum  --|--2-2-2-2---2-2-| Repeat
D|--1--  chord  --|--3--  chord  --|--0--  chord  --|--0-0-0-0---0-0-|
A|--1-------------|--3-------------|--2-------------|----------------|
E|----------------|--1-------------|--3-------------|----------------|
I'll stick  a -  round, I'll stick a-round, learn from all, that came from it...
----------------------------------------------------------------------------

3. Big Me
[Intro/Verse]
     C                     Am                   G                   F
e|--3----3----------------0----0---------------3----3--------------1----1--|
B|--1----1----------------1----1---------------1----1--------------1----1--|
G|--0----0----------------2----2---------------0----0--------------2----2--|
D|--2----2----------------2----2---------------0----0--------------3----3--|
A|--3----3----------------0----0---------------2----2--------------3----3--|
E|---------------------------------------------3----3--------------1----1--|

[Chorus]
     E                                        F
e|--0----0----0----0----0----0----0----0-----1----1----1----1----1----1----1----1--|
B|--0----0----0----0----0----0----0----0-----1----1----1----1----1----1----1----1--|
G|--1----1----1----1----1----1----1----1-----2----2----2----2----2----2----2----2--|
D|--2----2----2----2----2----2----2----2-----3----3----3----3----3----3----3----3--|
A|--2----2----2----2----2----2----2----2-----3----3----3----3----3----3----3----3--|
E|--0----0----0----0----0----0----0----0-----1----1----1----1----1----1----1----1--|

    C                     C7
e|--3----3----3----3------0----0----0----0--|
B|--1----1----1----1------1----1----1----1--|
G|--0----0----0----0------3----3----3----3--|
D|--2----2----2----2------2----2----2----2--|
A|--3----3----3----3------3----3----3----3--|
E|------------------------------------------|

     E                                        F
e|--0----0----0----0----0----0----0----0-----1----1----1----1----1----1----1----1--|
B|--0----0----0----0----0----0----0----0-----1----1----1----1----1----1----1----1--|
G|--1----1----1----1----1----1----1----1-----2----2----2----2----2----2----2----2--|
D|--2----2----2----2----2----2----2----2-----3----3----3----3----3----3----3----3--|
A|--2----2----2----2----2----2----2----2-----3----3----3----3----3----3----3----3--|
E|--0----0----0----0----0----0----0----0-----1----1----1----1----1----1----1----1--|

    C                    G
e|--3----3----3----3-----3----3----3----3----3----3----3----3--|
B|--1----1----1----1-----0----0----0----0----0----0----0----0--|
G|--0----0----0----0-----0----0----0----0----0----0----0----0--|
D|--2----2----2----2-----0----0----0----0----0----0----0----0--|
A|--3----3----3----3-----2----2----2----2----2----2----2----2--|
E|-----------------------3----3----3----3----3----3----3----3--|

[Bridge]
     C             G       F      C            G
e|--3-----3-------3-------1------3-----3------3----3----3----3----3----3----3----3--|
B|--1-----1-------1-------1------1-----1------1----1----1----1----1----1----1----1--|
G|--0-----0-------0-------2------0-----0------0----0----0----0----0----0----0----0--|
D|--2-----2-------0-------3------2-----2------0----0----0----0----0----0----0----0--|
A|--3-----3-------2-------3------3-----3------2----2----2----2----2----2----2----2--|
E|----------------3-------1-------------------3----3----3----3----3----3----3----3--|

[Outro]
     C             G       F   C
e|--3----3--------3-------1-|-3--------------------------------------------|
B|--1----1--------1-------1-|-1--------------------------------------------|
G|--0----0--------0-------2-|-0--------------------------------------------|
D|--2----2--------0-------3-|-2--------------------------------------------|
A|--3----3--------2-------3-|-3--------------------------------------------|
E|----------------3-------1-|----------------------------------------------|

[4. Alone + Easy Target]
[Tuning: D a d g b e]
[Intro/Verse]
e|--8-8-8--8-8---8-8--8-8---8-8--8-8---8-8-|-------0---------------0--------|
B|--7-7-7--8-7---7-7--8-7---7-7--8-7---7-8-|---------0---------------0------|
G|--7-7-7--7-7---7-7--7-7---7-7--7-7---7-7-|---3-------3-------1-------1----|
D|--0-0-0--0-0---0-0--0-0---0-0--0-0---0-0-|-----4-------4-------2-------2--|
A|-----------------------------------------|-4---------------2--------------|
E|-----------------------------------------|--------------------------------|

[Chorus]
e|-----------------------------------------------------------------|
B|-----------------------------------------------------------------|
G|-----------------------------------------------------------------|
D|--0---0---0---3---5---5---5---3---0---0---0---3---7---7---7---7--|
A|--0---0---0---3---5---5---5---3---0---0---0---3---7---7---7---7--|
E|--0---0---0---3---5---5---5---3---0---0---0---3---7---7---7---7--|
      "Head    is   on                 I  want      out."

e|-------------------------------------------|
B|-------------------------------------------|
G|-------------------------------------------|
D|-0-3---0-3---0-3---0\10-10-10-10-10-10-10--|
A|-0-3---0-3---0-3---0\10-10-10-10-10-10-10--|
E|-0-3---0-3---0-3---0\10-10-10-10-10-10-10--|
    "I'm alone and I'm an easy target..."

[Bridge]
e|-------------------------------------------------|
B|-------------------------------------------------|
G|-------------------------------------------------|(x3)
D|--5--5--5---5--5--5--5---5--5--5--5---5--5--3~~--|
A|--5--5--7---5--5--5--7---5--5--5--7---5--5--3~~--|
E|--5--5--5---5--5--5--5---5--5--5--5---5--5--3~~--|
   "Did you ever listen ?"

e|-----------------------------------------------|
B|-----------------------------------------------|
G|-----------------------------------------------|
D|--7--7--7--7--7--7--7--7--7--7--7--7--7--10~~--|(x4)
A|--7--7--7--7--7--7--7--7--7--7--7--7--7--10~~--|
E|--7--7--7--7--7--7--7--7--7--7--7--7--7--10~~--|
   "Get out! Get out! Get out!"

[5. Good Grief]
[Tuning: D a d g b e]
[Intro/Pre-Verse]
e|--------------------------------------------------------------------------|
B|--------------------------------------------------------------------------|
G|-----------------------------------------------8---------8-------8--10p8--|
D|------8-6--8--6-6h8-------8-6--8--6-6h8---8\10-----8\10-----10-8----------|
A|--8-8-----------------8-8-------------------------------------------------|
E|--------------------------------------------------------------------------|

[Verse]
e|--------------------------------------------------------|
B|--------------------------------------------------------|
G|--3--3--3--3----6--6--6--6------------------------------|(2x)
D|--3--3--3--3----6--6--6--6----3--3--3--3----6--6--6--6--|
A|--1--1--1--1----4--4--4--4----3--3--3--3----6--6--6--6--|
E|------------------------------3--3--3--3----6--6--6--6--|
   When I think about it,   the wind blows Hate it! Hate it!  Hate it!

e|----------------------------------------------------------------------|
B|----------------------------------------------------------------------|
G|--3--3--3--3---6--6--6--6---------------------------------------------|
D|--3--3--3--3---6--6--6--6---3--3--3--3----6--6--6---1--1--1---3--3--3-|
A|--1--1--1--1---4--4--4--4---3--3--3--3----6--6--6---1--1--1---3--3--3-|
E|----------------------------3--3--3--3----6--6--6---1--1--1---3--3--3-|
  Hate it!     Hate it!      Hate it!      Hate it!

e|---------------------------------------------------||
B|---------------------------------------------------||
G|---------------------------------------------------||
D|--6--6--6---1--1--1---3--3--3--6--6--6----1-1-1-1--||
A|--6--6--6---1--1--1---3--3--3--6--6--6----1-1-1-1--||
E|--6--6--6---1--1--1---3--3--3--6--6--6----1-1-1-1--||

[Bridge]
e|------------------------------------------------------------------|
B|------------------------------------------------------------------|
G|------------------------------------------------------------------|
D|--6--8--6--8--6--8--6--8---3--3--3--3--3---6--8--6--8--6--8--6--8-|
A|--6--8--6--8--6--8--6--8---3--3--3--3--3---6--8--6--8--6--8--6--8-|
E|--6--8--6--8--6--8--6--8---3--3--3--3--3---6--8--6--8--6--8--6--8-|

e|----------------------------------------------------------------------------||
B|----------------------------------------------------------------------------||
G|----------------------------------------------------------------------------||
D|-3--3--3--3--6--6--6--6--1--1--1--1---3--3--3--3--6--6--6--6--1--1--1--1----||
A|-3--3--3--3--6--6--6--6--1--1--1--1---3--3--3--3--6--6--6--6--1--1--1--1----||
E|-3--3--3--3--6--6--6--6--1--1--1--1---3--3--3--3--6--6--6--6--1--1--1--1----||

[6. Floaty]
[Gtr. 1 plays the upper part while Gtr. 2 plays bottom part.]
[Intro]
e|-0--0-0-0--0--0-0-0--0--0-0-0--0--0-0-0-|
B|-0--0-0-0--0--0-0-0--0--0-0-0--0--0-0-0-|
G|-8--8-8-8--8--8-8-8--8--8-8-8--8--8-8-8-|
D|-9--9-9-9--9--9-9-9--9--9-9-9--9--9-9-9-|
A|-7--7-7-7--7--7-7-7--7--7-7-7--7--7-7-7-|
E|-0---------0---------0---------0--------|
                                          |
e|-0--0-0-0--0--0-0-0--0--0-0-0--0--0-0-0-|
B|-4--4-4-4--4--4-4-4--4--4-4-4--4--4-4-4-|
G|----------------------------------------|
D|----------------------------------------|
A|----------------------------------------|
E|----------------------------------------|

e|-0--0-0-0--0--0-0-0--0--0-0-0--0--0-0-0-|
B|-0--0-0-0--0--0-0-0--0--0-0-0--0--0-0-0-|
G|-8--8-8-8--8--8-8-8--8--8-8-8--8--8-8-8-|
D|-9--9-9-9--9--9-9-9--9--9-9-9--9--9-9-9-|
A|-7--7-7-7--7--7-7-7--7--7-7-7--7--7-7-7-|
E|-0---------0---------0---------0--------|
                                          |
e|-0--0-0-0--0--0-0-0--0--0-0-0--0--0-0-0-|
B|-4--4-4-4--4--4-4-4--4--4-4-4--4--4-4-4-|
G|----------------------------------------|
D|----------------------------------------|
A|----------------------------------------|
E|----------------------------------------|

e|-0--0-0-0--0--0-0-0--0--0-0-0--0--0-0-0-|
B|-0--0-0-0--0--0-0-0--0--0-0-0--0--0-0-0-|
G|-6--6-6-6--6--6-6-6--6--6-6-6--6--6-6-6-|
D|-7--7-7-7--7--7-7-7--7--7-7-7--7--7-7-7-|
A|-5--5-5-5--5--5-5-5--5--5-5-5--5--5-5-5-|
E|----------------------------------------|
                                          |
e|-0--0-0-0--0--0-0-0--0--0-0-0--0--0-0-0-|
B|-2--2-2-2--2--2-2-2--2--2-2-2--2--2-2-2-|
G|----------------------------------------|
D|----------------------------------------|
A|----------------------------------------|
E|----------------------------------------|

e|-0--0-0-0--0--0-0-0--0--0-0-0--0--0-0-0-|
B|-0--0-0-0--0--0-0-0--0--0-0-0--0--0-0-0-|
G|-4--4-4-4--4--4-4-4--2--2-2-2--2--2-2-2-|
D|-5--5-5-5--5--5-5-5--2--2-2-2--2--2-2-2-|
A|-3--3-3-3--3--3-3-3--0--0-0-0--0--0-0-0-|
E|----------------------------------------|
                                          |
e|-0--0-0-0--0--0-0-0--0--0-0-0--0--0-0-0-|
B|-1--1-1-1--1--1-1-1--1--1-1-1--1--1-1-1-|
G|---------------------2--2-2-2--2--2-2-2-|
D|----------------------------------------|
A|----------------------------------------|
E|----------------------------------------|

[Verse]
e|----------0------------0------------0------------0-----|
B|------------0------------0------------0------------0---|
G|-8--8-8-8-----8--8-8-8-----8--8-8-8-----8--8-8-8-----8-|
D|-9--9-9-9-----9--9-9-9-----9--9-9-9-----9--9-9-9-----9-|
A|-7--7-7-7-----7--7-7-7-----7--7-7-7-----7--7-7-7-----7-|
E|-0------------0------------0------------0--------------|
                                                         |
e|-0--0-0-0-0-0-0--0-0-0-0-0-0--0-0-0-0-0-0--0-0-0-0-0-0-|
B|-4--4-4-4-4-4-4--4-4-4-4-4-4--4-4-4-4-4-4--4-4-4-4-4-4-|
G|-------------------------------------------------------|
D|-------------------------------------------------------|
A|-------------------------------------------------------|
E|-------------------------------------------------------|
   He           floats       Floats       away

e|----------0------------0--------------0--------------0---|
B|------------0------------0--------------0--------------0-|
G|-6--6-6-6-----6--6-6-6-----6-4--4-4-4-----4-2--2-2-2-----|
D|-7--7-7-7-----7--7-7-7-----7-5--5-5-5-----5-2--2-2-2-----|
A|-5--5-5-5-----5--5-5-5-----5-3--3-3-3-----3-0--0-0-0-----|
E|---------------------------------------------------------|
                                                           |
e|-0--0-0-0-0-0-0--0-0-0-0-0-0-0--0-0-0-0-0-0-0--0-0-0-0-0-|
B|-2--2-2-2-2-2-2--2-2-2-2-2-2-1--1-1-1-1-1-1-1--1-1-1-1-1-|
G|--------------------------------------------2--2-2-2-2-2-|
D|---------------------------------------------------------|
A|---------------------------------------------------------|
E|---------------------------------------------------------|
   On    the    ground    he     comes     back   down

[Chorus]
e|---------------------------|
B|---------------------------|
G|---4--4--2-1----4--4--2-1--|
D|---------------------------|
A|---------------------------|
E|-0------------0------------|
                             
e|---------------------------|
B|---------------------------|
G|---------------------------|
D|-2------------2------------|
A|-2------------2------------|
E|-0------------0------------|

e|---------------------------------|
B|---------------------------------|
G|-------------------------6-6-6-6-|
D|-6-6-6-6-6-6-6-6-7-7-7-7-6-6-6-6-|
A|-6-6-6-6-6-6-6-6-7-7-7-7-4-4-4-4-|
E|-4-4-4-4-4-4-4-4-5-5-5-5---------|
  That's not as big as what's float - ing

[Bridge]
e|--------------------------------------------------------------------------|
B|--------------------------------------------------------------------------|
G|-4-4-4-4-4-4-4--7-7-7-7-7--4-7--------------------------------------------|
D|-4-4-4-4-4-4-4--7-7-7-7-7--4-7--6-6-6-6-6-6-6---2-2-2---6-6-6-------------|
A|-2-2-2-2-2-2-2--5-5-5-5-5--2-5--6-6-6-6-6-6-6---2-2-2---6-6-6-------------|
E|--------------------------------4-4-4-4-4-4-4---0-0-0---4-4-4-------------|

[8.  Oh, George]
[Verse]
e|-0-0-0-0-0-0--2-2-2-2-2-2--3-3-3-3-3-3--0-0-0-0-0-0-0-0-|
B|-1-1-1-1-1-1--1-1-1-1-1-1--1-1-1-1-1-1--1-1-1-1-1-1-1-1-|
G|-2-2-2-2-2-2--2-2-2-2-2-2--2-2-2-2-2-2--0-0-0-0-0-0-0-0-|
D|-2-2-2-2-2-2--1-1-1-1-1-1--3-3-3-3-3-3--2-2-2-2-2-0-0-0-|
A|-0-0-0-0-0-0----------------------------3-3-3-3-3-2-2-2-|
E|--------------------------------------------------------|

e|-0-0-0-0-0-0--0-0-0-0-0-0-0-0-0-0-0-0-0-0-0-0-0-0-0-0-0-0-0-0-|
B|-1-1-1-1-1-1--1-1-1-1-1-1-1-0-0-0-0-0-0-0-0-0-0-0-0-0-0-0-0-0-|
G|-2-2-2-2-2-2--2-2-2-2-2-2-2-0-0-0-0-0-0-0-0-0-0-0-2-2-2-0-0-0-|
D|-2-2-2-2-2-2--0-0-0-0-0-0-0-0-0-0-0-0-0-0-0-0-0-0-0-0-0-0-0-0-|
A|-0-0-0-0-0-0--0-0-0-0-0-0-0-2-2-2-2-2-2-2-2-2-2-2-2-2-2-2-2-2-|
E|--------------2-2-2-2-0-0-2-3-3-3-3-3-3-3-3-3-3-3-3-3-3-3-3-3-|

[Chorus]
e|--0-0-0-0-0-0-0-0-0-0-0-0-0-0-0-0-0-0-0-0-0-0-0-0-0-0-0-0-0-0-|
B|--0-0-0-0-0-0-0-0-0-0-0-0-0-0-0-0-0-0-0-0-0-0-0-0-0-0-0-0-0-0-|
G|--0-0-0-0-0-0-0-0-0-0-0-0-0-0-0-0-0-0-0-0-0-0-0-0-0-0-0-0-0-0-|
D|--3-3-3-3-3-3-2-2-2-2-2-2-3-3-3-3-3-3-2-2-2-2-2-2-3-3-3-3-3-3-|
A|--3-3-3-3-3-3-2-2-2-2-2-2-3-3-3-3-3-3-2-2-2-2-2-2-3-3-3-3-3-3-|
E|--1-1-1-1-1-1-0-0-0-0-0-0-1-1-1-1-1-1-0-0-0-0-0-0-1-1-1-1-1-1-|

e|-0-0-0-0-0-0--2-2-2-2-2-2-2-2-2-2-2--|
B|-0-0-0-0-0-0--3-3-3-3-3-3-3-3-3-3-3--|
G|-0-0-0-0-0-0--2-2-2-2-2-2-2-2-2-2-2--|
D|-2-2-2-2-2-2--0-0-0-0-0-0-0-0-0-0-0--|
A|-2-2-2-2-2-2-------------------------|
E|-0-0-0-0-0-0-------------------------|

[Solo]
e|----------------------------------------------------------------------------|
B|-10-8----------------------------------/10-10-10-10-10\8-/13-13-13-13-13/12-|
G|-------8\7\5-5-7-5----------------------------------------------------------|
D|-------------------5-5/7-7-7-7-7\5-5-5--------------------------------------|

e|----------------------------------------------------------------|
B|----------------------------------------------10-8--------------|
G|-12-14-12-12-12-12-12-14-14-14-14-14-12-12-12-------8\7\5-5-7-5-|
D|----------------------------------------------------------------|

e|----------------------------------------------------------|
B|---------------------/10-10-10-10-10\8-/13-13-13-13-13/12-|
G|----------------------------------------------------------|
D|-5-5/7-7-7-7-7\5-5-5--------------------------------------|

e|----------------------------------------------|
B|----------------------------------------------|
G|-12-14-12-12-12-12-12-14-14-14-14-14-12-12-12-|
D|----------------------------------------------|

e|-/13-13--13--13--13--13\12--12--12---/13-13--13--13--13--13\12--12--12---|
B|-/13---13--13--13--13-----12--12--12-/13---13--13--13--13-----12--12--12-|
G|-------------------------------------------------------------------------|
D|-------------------------------------------------------------------------|

e|-/13-13--13--13--13--13\12--12--12---15-15-15-15-15-15-15-15\14-14-14-14-14-14-14-14--|
B|-/13---13--13--13--13-----12--12--12--------------------------------------------------|
G|--------------------------------------------------------------------------------------|
D|--------------------------------------------------------------------------------------|

[9. For all The Cows]
[Intro]
       G            E          G
e|-----------------0----0------------0------------------------|
B|----3---0--------0----0-----3---0--0------------------------|
G|----3---2--------1----------3---2--------------------2-3-4--|
D|----x---1---1-------2-------x---1--------------0-1-2--------|
A|--3-3---2-----2-----2-----3-3---2---------------------------|
E|--------------------0----------------0-0-3-4-0--------------|

[Verse]
     G             E           G           E
e|----------------0-----0-----------------0-------|
B|----3---0-------0-----------3---0--------0------|
G|----3---2-------1-----------3---2---------1-----|
D|----x---1--1----2-----------x---1--1-------2----|
A|--3-3---2----2--2---------3-3---2----2------2---|
E|----------------0--0-------------------------0--|

[Chorus]
e|----------------------------------|-------------------------------|------------------------|
B|----------------------------------|-------------------------------|------------------------|
G|--4---4---4---4---4-4-4-4-4-4-4-4-|-------------9--9--9--9--9--9--|-9-9-9-9-9-9-9-9-9-9-9--|
D|--5---5---5---5---4-4-4-4-4-4-4-4-|-7-7-7-7-7-7-8--8--8--8--8--8--|-9-9-9-9-9-9-9-9-9-9-9--|
A|--5---5---5---5---2-2-2-2-2-2-2-2-|-7-7-7-7-7-7-10-10-10-10-10-10-|-7-7-7-7-7-7-7-7-7-7-7--|
E|--3-0-3-0-3-0-3-0-----------------|-5-5-5-5-5-5-8--8--8--8--8--8--|-0-0-0-0-0-0-0-0-0-0-0--|
  (3x)                               (3x)

[10.X-static]
[Gtr.1 capoII]
[Tune down ½ step: All Gtrs.]
1st = Eb 4th = Db
2nd = Bb 5th = Ab
3rd = Gb 6th = Eb

[Intro - Moderately 90bpm]
e|------------------------------|
B|-------------3-3-3-3-3-3-3-3--|
G|-------------2-2-2-2-2-2-2-2--|(x8)
D|----/-(full)-0-0-0-0-0-0-0-0--|
A|--3/--------------------------|
E|------------------------------|

[Chorus]
e|-----------------|-----------------|-----------------|
B|-3-3-3-3-3-3-3-3-|-3-3-3-3-3-3-3-3-|-3-3-3-3-3-3-3-3-|
G|-2-2-2-2-2-2-2-2-|-2-2-2-2-1-1-1-1-|-0-0-0-0-0-0-0-0-|
D|-0-0-0-0-0-0-0-0-|-0-0-0-0-0-0-0-0-|-0-0-0-0-0-0-0-0-|
A|-----------------|-----------------|-----------------|
E|-----------------|-----------------|-----------------|

e|-(3)--------------------|---------------------|
B|-(0)--------------------|---------------------|
G|-(0)--------------------|---------------------|
D|------------------------|---------------------|
A|------------3/5---5/7---|-(7)-------7/9-------|
E|------------------------|-----------------10\-|

[Foo Fighters - X-Static]
[Intro]
(Gtr. 1)
e|---------------------|
B|---------------------|
G|------9-9-9-9-9-9-9--|
D|------9-9-9-9-9-9-9--|
A|--^6--7-7-7-7-7-7-7--|
E|---------------------|

[Gtr. 2]
e|------------------------------------------------------------------------|
B|------------------------------------------------------------------------|
G|------------------------------------4-4-4-4-4-4-4---------------4-------|
D|--2-2-2-2-2-2-2-2-2-2-2-2-2-2-----2-0-0-0-0-0-0-0---------------x-------|
A|--2-2-2-2-2-2-1-0-0-0-0-0-0-0-0-2-2-x-x-x-x-x-x-x-4-4-4-4-4-4-3-2-2-2-2-|
E|------------------------------------3-3-3-3-3-3-4-5-5-5-5-5-5-4-3-3-3-3-|

e|--------------------------------------------|
B|--------------------------------------------|
G|-4-4-4-------3-3-3-3-3-4-4-4-4-4-4-4-4-4-4--|
D|-x-x-x-------x-x-x-x-x-2-2-2-2-2-2-2-2-2-2--|
A|-2-2-2-5-1-1-1-1-1-1-1-2-2-2-2-2-2-2-2-2-2--|
E|-3-3-3-4-2-2-2-2-2-2-3-4-4-4-4-4-4-4-4-4-4--|

[Chorus]
e|----------------------------------------------------------------------------|
B|----------------------------------------------------------------------------|
G|----------1---1-----------1-------------------------2--2--2--------2--------|
D|------2-----------2---2-------------2-2-2-2-2-2-----2--2--2-----2------2----|
A|--4---------------2----------1------1-1-1-1-1-1--5--------5--4---------3----|
E|---------------------------------2--2-2-2-2-2-2-----------------------------|

[11. Watter Shed]
[Intro]
e|---------------------------------------------------|
B|---------------------------------------------------|
G|------------------------------------------8--------|(6 times)
D|--6\8---8---8---8---8---6\8---8---8---8---8---9/8--|
A|--6\8---8---8---8---8---6\8---8---8---8---6---9/8--|
E|--4\6---6---6---6---6---4\6---6---6---6---6---7/6--|

e|-----------------------------|
B|-----------------------------|
G|----------------8---8--8--8--|
D|--4---4--4--4---8---8--8--8--|
A|--4---4--4--4---6---6--6--6--|
E|--2---2--2--2---6---6--6--6--|

[Verse]
e|---------------------------------------------------|
B|---------------------------------------------------|
G|------------------------------------------8--------|
D|--6\8---8---8---8---8---6\8---8---8---8---8---9/8--|
A|--6\8---8---8---8---8---6\8---8---8---8---6---9/8--|
E|--4\6---6---6---6---6---4\6---6---6---6---6---7/6--|
     "Stick  it  to  the  mail - man..."

e|----------------------------|----------------------------|---------------|
B|----------------------------|----------------------------|---------------|
G|----------------8---8--8--8-|----------------------------|----------6----|
D|--4---4--4--4---8---8--8--8-|-9/8--9/8--3--3-3-3-3-3-3-3-|-6-6-6-6--6-6--|
A|--4---4--4--4---6---6--6--6-|-9/8--9/8--3--3-3-3-3-3-3-3-|-6-6-6-6--4-6--|
E|--2---2--2--2---6---6--6--6-|-7/6--7/6--1--1-1-1-1-1-1-1-|-4-4-4-4--4-4--|
     "Take that to the bank and call it a check. Masked without a weapon."

[Chorus]
e|----------------------|---------------------|---------------------|------|
B|----------------------|---------------------|---------------------|------|
G|--6--9----------------|-6--9----------------|-6--9----------------|-6----|
D|--6--9--8-8-8-8-6\8-8-|-6--9--6-6-6-6-6-6-6-|-6--9--8-8-8-8-6\8-8-|-6-6--|
A|--4--7--8-8-8-8-6\8-8-|-4--7--6-6-6-6-6-6-6-|-4--7--8-8-8-8-6\8-8-|-4-6--|
E|--4--7--6-6-6-6-4\6-6-|-4--7--4-4-4-4-3\4-4-|-4--7--6-6-6-6-4\6-6-|-4-4--|
     "Hey there boy while you were catching the black widow..."

[Bridge]
e|-----------------------------|----------|
B|-----------------------------|----------|
G|------------------------4----|----------|
D|--4\3-3-3-2/3-3-2/3-2/3-4-4--|--\7---7--|
A|--4\3-3-3-2/3-3-2/3-2/3-2-4--|--\7---7--|
E|--2\1-1-1-0/1-1-0/1-0/1-2-2--|--\5---5--|
     "I wanna swim in the wattershed..."

[12. Exausted]
[Tuning:D a d g b e]
[Intro/Verse]
-Slow tempo each verse chords strummed 6 times.
-The chords Bb and A are played 8 times each and
G 16 time after verse on a faster tempo.
-Live, Dave often likes to add is pinky finger on the "Am"
(on the 3rd fret of the e String) for some strums.

     Dm G7 F9 Am F9 Am    Bb A  G
e|--1--1--0--0--0--0--|-----------|
B|--3--3--1--1--1--1--|-----------|
G|--2--0--0--2--0--2--|-----------|
D|--0--0--3--2--3--2--|--8--7--5--|
A|-----2--3--0--3--0--|--8--7--5--|
E|--------0-----0-----|--8--7--5--|

[Chorus]
     F G A F D F D  F D F D
e|-------------------------------------------|
B|-------------------------------------------|
G|-------------------------------------------|
D|--3-5-7-3-0-3-0--3-0-3-0-------------------|
A|--3-5-7-3-0-3-0--3-0-3-0-------------------|
E|--3-5-7-3-0-3-0--3-0-3-0-4-5-7~\-----------|

     F G A F D F D  F D F D
e|-------------------------------------------|
B|-------------------------------------------|
G|-------------------------------------------|
D|--3-5-7-3-0-3-0--3-0-3-0-------------------|
A|--3-5-7-3-0-3-0--3-0-3-0-------------------|
E|--3-5-7-3-0-3-0--3-0-3-0-4--5-7-10-10-10\--|

[Post-Chorus](played at 2:15 & 4:20)
     A F A
e|--------|
B|--------|
G|--------| (once)
D|--7-3-7-|
A|--7-3-7-|
E|--7-3-7-|

[Lyrics & Tempo]
[Verse 1]
I'm not around that much running exhausted and lost.
Dm              G7             F9    Am   F9   Am

If it could be undone will it have costed? It's taught and lost.
Dm             G7             F9      Am   F9       Am Bb A  G

[Verse 2]
Blowing away we stray, wilted insuited, at fault.
Dm             G7      F9     Am       F9   Am

What if the day had stayed in bed. These baubles we've brought at fault.
Dm              G7            F9         Am     F9     Am      Bb A  G

[Chorus]
F G A F D F D  F D F D

[Post-Chorus]
A F A

[Verse 3]
After the bliss has long ended this caution this fault.
Dm        G7                  F9    Am     F9    Am
Give me a breeze that's long winded accosted adult arrested.
Dm        G7                    F9  Am    F9 Am    Bb A  G

[Chorus]
F G A F D F D  F D F D

[Post-Chorus]
A F A

[Repeated Verse with fade out]
Suggest correction
comments
print report bad tab
5 comments total. Showing first comments.
-1 reply
Rundle 60 Apr 30, 2006 05:26 PM

Did you transcribe all this? because it is amazing. Great tab.

+2 reply
intention_craft 31 May 18, 2008 05:33 AM

weenie beenie??

where??

otherwise nice

0 reply
ungoogled 10 May 19, 2011 09:35 AM

were the **** is weenie beenie

guest
You may want to rate the tab now too:
select rating
Wanna post a correction for this tab? Suggest correction