Oops, an error
Loading. Please wait.

For All The Cows Bass Tab

version 2
version 2

Whole song

Interactive

4,050 views 9 this week
2 commentsread comments
1 2 3 4 5
excellent!
x 9
add to favorites
launch autoscroll
font size
0
reset
guitar tuner
Tab Pro tools
  • play this tab
  • loop segment
  • change instrument
  • show fretboard
  • metronome
×
Best way to learn
"For All The Cows"
Autoscroll
slow
fast
+/-
esc
set tempo
stop
Contributor
-------------------------------------------------------------------------------
			     FOR ALL THE COWS - Foo Fighters
-------------------------------------------------------------------------------

Tabbed By:39/Smooth 
Tuning:Normal

Verse
G|-----------------------|
D|-----------------------|
A|--3--3--0--2-------/7--|
E|-----------------------|


Chorus
G|-------------------------------------------------|
D|-------------------------------------------------|
A|-------------------------------------------------|
E|-3---0-3---0-3---0-3---0-7-7-7-7-7-7-7-7-7-7-7-7-|

G|---------------------------------------------------|
D|---------------------------------------------------|
A|---------------------------------------------------|
E|-3---0-3---0-3---0-3---0-7-7-7-7-7-7-10/11-7-7-7-7-|

G|-------------------------------------------------|
D|-------------------------------------------------|
A|-------------------------------------------------|
E|-3---0-3---0-3---0-3---0-7-7-7-7-7-7-7-7-7-7-7-7-|

G|-------------------------|
D|-------------------------| (x3)
A|-------------3-3-3-3-3-3-|
E|-5-5-5-5-5-5-------------|

G|-------------------------|
D|-------------------------|
A|-7-7-7-7-7-7-7-7-7-7-7-7-|
E|-------------------------|

| /  slide up
| \  slide down
| h  hammer-on
| p  pull-off
| ~  vibrato
| +  harmonic
| x  Mute note
===============================================================================
comments
print report bad tab
2 comments total.
0 reply
inyourhonor16 wrote on April 17 2006, 08:33 pm

this is a great song and a great TAB

0 reply
wigglesbass wrote on May 25 2007, 07:04 am

great TAB lovin it

I want to post or [tab]
guest
You may want to rate the tab now too:
select rating
Please do not post tabs as comments. Select "correction" instead!