Oops, an error
Loading. Please wait.

Fraternity Tab

version 3
version 3

Whole song

Interactive

396 views 6 this week
no commentswrite comment
1 2 3 4 5
accurate
x 4
add to favorites
launch autoscroll
font size
0
reset
how to read this tab
guitar tuner
Autoscroll
slow
fast
+/-
esc
set tempo
stop
Help us to improve Ultimate-Guitar.com Take our survey!
×
Author
Difficulty
intermediate
Song: Fraternity
Artist: Foo Fighters
Tuning: Standard
Tabbed By: GuitarHawk99


Intro/Main riff:
Guitar 1 w/ Distortion
|----------------------------------------------------------------------|
|----------------------------------------------------------------------|
|-8-8-8-8-8-8-8\5-5-5-5------------------------------------------------|
|-8-8-8-8-8-8-8\5-5-5-5-5-5-5-5-5--8-8-8-8-8-8-8-8--5-5-5-5--6-6-6-6-6-|
|-6-6-6-6-6-6-6\3-3-3-3-5-5-5-5-5--6-6-6-6-6-6-6-6--3-3-3-3--6-6-6-6-6-|
|-----------------------3-3-3-3-3--6-6-6-6-6-6-6-6--3-3-3-3--4-4-4-4-4-|

---------------------------------------------------|
---------------------------------------------------|
---------------------------------------------------|
-8-8-8-8-8-8-8--5-5-5-5--5-5-5-5--6-6-6-6--3-3-3-3-|
-6-6-6-6-6-6-6--3-3-3-3--5-5-5-5--6-6-6-6--3-3-3-3-|
-6-6-6-6-6-6-6--3-3-3-3--3-3-3-3--4-4-4-4--1-1-1-1-|

Chorus:
Guitar 1
|----------------------------------------------------------------------|
|----------------------------------------------------------------------|
|-8-8-8-8-8-8-8\5-5-5-5------------------------------------------------|
|-8-8-8-8-8-8-8\5-5-5-5-5-5-5-5-5--8-8-8-8-8-8-8-8--5-5-5-5--6-6-6-6-6-|
|-6-6-6-6-6-6-6\3-3-3-3-5-5-5-5-5--6-6-6-6-6-6-6-6--3-3-3-3--6-6-6-6-6-|
|-----------------------3-3-3-3-3--6-6-6-6-6-6-6-6--3-3-3-3--4-4-4-4-4-|
Guitar 2
|----------------------------------------------------------------------|
|----------------------------------------------------------------------|
|-10--10--10--12--8--7--8--3~~-----10--10--10--12---8--7--8--3--1--0~~-|
|----------------------------------------------------------------------|
|----------------------------------------------------------------------|
|----------------------------------------------------------------------|

Guitar 1
---------------------------------------------------|
---------------------------------------------------|
---------------------------------------------------|
-8-8-8-8-8-8-8--5-5-5-5--5-5-5-5--6-6-6-6--3-3-3-3-|
-6-6-6-6-6-6-6--3-3-3-3--5-5-5-5--6-6-6-6--3-3-3-3-|
-6-6-6-6-6-6-6--3-3-3-3--3-3-3-3--4-4-4-4--1-1-1-1-|
Guitar 2
----------------------------------------------|
----------------------------------------------|
-10--10--10--12--8--7--8--3--5--8--7--10--8~~-|
----------------------------------------------|
----------------------------------------------|
----------------------------------------------|


Post chorus:
Guitar 1
|----------------------------------------------------------------------|
|----------------------------------------------------------------------|
|----------------------------------------------------------------------|
|-8-8-8-8-8-8-8--5-5-5-5-------------8-8-8-8-8-8-8--5-5-5-5------------|
|-6-6-6-6-6-6-6--3-3-3-3--5-5-5-5-5--6-6-6-6-6-6-6--3-3-3-3--5-5-5-5-5-|
|-6-6-6-6-6-6-6--3-3-3-3--3-3-3-3-3--6-6-6-6-6-6-6--3-3-3-3--3-3-3-3-3-|
PM\____________________________________________________________________

Guitar 2
|--------------------------------------|
|--------------------------------------|
|-10--10--10--12--8--7--8--3~FEEDBACK~-|
|--------------------------------------|
|--------------------------------------|
|--------------------------------------|

Guitar 1
----------------------------------------------------------------------|
----------------------------------------------------------------------|
----------------------------------------------------------------------|
-8-8-8-8-8-8-8--5-5-5-5-------------8-8-8-8-8-8-8--5-5-5-5------------|
-6-6-6-6-6-6-6--3-3-3-3--6-6-6-6-6--6-6-6-6-6-6-6--3-3-3-3--6-6-6-6-6-|
-6-6-6-6-6-6-6--3-3-3-3--4-4-4-4-4--6-6-6-6-6-6-6--3-3-3-3--4-4-4-4-4-|
_____________________________________________________________________/

Guitar 2
|--------------------------------------------|
|--------------------------------------------|
|-10--10--10--12--8--7--8--3--1--0~FEEDBACK~-|
|--------------------------------------------|
|--------------------------------------------|
|--------------------------------------------|


Verse:
Guitar 1 plays main riff

Guitar 2
|--------------------------------------------|
|--------------------------------------------|
|-8-8-8-10--8-7-5-7p5-4---8-8-8-10--8-5-5-1--|
|--------------------------------------------|
|--------------------------------------------|
|--------------------------------------------|

-----------------------------------|
-----------------------------------|
--8-8-8-10--8-7-5-7p5-4-5-8-7-10-8-|
-----------------------------------|
-----------------------------------|
-----------------------------------|


Pre chorus:
Guitar 1
|---------------------------------------------------------------------|
|---------------------------------------------------------------------|
|-4-4-4-4-4-4-4-4-4-4-4-4--6-6-6-6------------------------------------|
|-4-4-4-4-4-4-4-4-4-4-4-4--6-6-6-6---6-6-6-6-6-6-6-6-6-6-6-6--8-8-8-8-|
|-2-2-2-2-2-2-2-2-2-2-2-2--4-4-4-4---6-6-6-6-6-6-6-6-6-6-6-6--8-8-8-8-|
|------------------------------------4-4-4-4-4-4-4-4-4-4-4-4--6-6-6-6-|
Guitar 2
|---------------------------------------------------------------------|
|-4-4-4-4-6-6-6-6-7-7-7-7-9-9-9-9-------------------------------------|
|------------------------------------6-6-6-6-6-6-6-6------------------|
|-1-1-1-1-3-3-3-3-4-4-4-4-6-6-6-6---------------------8-8-8-8-6-6-6-6-|
|------------------------------------4-4-4-4-3-3-3-3------------------|
|-----------------------------------------------------6-6-6-6-4-4-4-4-|

Guitar 1
------------------------------------|
------------------------------------|
------------------------------------|
-9-9-9-9-9-9-9-9-9-9-9-9-9-9-11-11--|
-9-9-9-9-9-9-9-9-9-9-9-9-9-9-11-11--|
-7-7-7-7-7-7-7-7-7-7-7-7-7-7-9--9---|
Guitar 2
------------------------------------|
-4-4-4-4--6-6-6-6--7-7-7-7--9-9-9-9-|
------------------------------------|
-1-1-1-1--3-3-3-3--4-4-4-4--6-6-6-6-|
------------------------------------|
------------------------------------|


Repeat everything from the chorus but in the post chorus guitar 2 is silent.


Play the chorus again when you reach the prechorus a second time then...


Bridge:
Guitar 1
|---------------------------------------------|
|-------9----------9----------9----------9----|
|-10h11---11-10h11---11-10h11---11-10h11---11-|
|---------------------------------------------| x4
|---------------------------------------------|
|---------------------------------------------|
Guitar 2
|-------------------------------------------------|
|-11-11-11-11-11-11-11-11-11-11-11-11-11-11-11-11-|
|-------------------------------------------------|
|-8--8--8--8--8--8--8--8--8--8--8--8--8--8--8--8--| x4
|-------------------------------------------------|
|-------------------------------------------------|

Guitar 1 & 2
|-----------------------------------------------------------------|
|-----------------------------------------------------------------|
|-6-6-6-6-6-6-6-6-6-6-6-6-6-6-6-6-4-4-4-4-4-4-4-4-4-4-4-4-4-4-4-4-|
|-6-6-6-6-6-6-6-6-6-6-6-6-6-6-6-6-4-4-4-4-4-4-4-4-4-4-4-4-4-4-4-4-|
|-4-4-4-4-4-4-4-4-4-4-4-4-4-4-4-4-2-2-2-2-2-2-2-2-2-2-2-2-2-2-2-2-|
|-----------------------------------------------------------------|

-----------------------------------|
-----------------------------------|
-8-8-8-8-8-8-8-8-8-8-8-8-8-8-8-8-8-|
-8-8-8-8-8-8-8-8-8-8-8-8-8-8-8-8-8-|
-6-6-6-6-6-6-6-6-6-6-6-6-6-6-6-6-6-|
-----------------------------------|


Solo:
Guitar 1 plays the main riff

Guitar 2
|--------------------------------------------------------------------------|
|--------------------------------11-11-11-11-11-11-11-13-11----------11----|
|-10-10-10-12--10-12-13-13-12-13----------------------------13-12-13----13-|
|--------------------------------------------------------------------------|
|--------------------------------------------------------------------------|
|--------------------------------------------------------------------------|

----------13-13-13/15-13-11-10-11-13-------------11-10-11b(13)r11\-|
-------------------------------------11-11-11-13-------------------|
-13-13-13----------------------------------------------------------|
-------------------------------------------------------------------|
-------------------------------------------------------------------|
-------------------------------------------------------------------|


Outro Chorus:
Guitar 1
|----------------------------------------------------------------------|
|----------------------------------------------------------------------|
|-8-8-8-8-8-8-8\5-5-5-5------------------------------------------------|
|-8-8-8-8-8-8-8\5-5-5-5-5-5-5-5-5--8-8-8-8-8-8-8-8--5-5-5-5--6-6-6-6-6-|
|-6-6-6-6-6-6-6\3-3-3-3-5-5-5-5-5--6-6-6-6-6-6-6-6--3-3-3-3--6-6-6-6-6-|
|-----------------------3-3-3-3-3--6-6-6-6-6-6-6-6--3-3-3-3--4-4-4-4-4-|
Guitar 2
|----------------------------------------------------------------------|
|----------------------------------------------------------------------|
|-10--10--10--12--8--7--8--3~~-----10--10--10--12---8--7--8--3--1--0~~-|
|----------------------------------------------------------------------|
|----------------------------------------------------------------------|
|----------------------------------------------------------------------|

Guitar 1
---------------------------------------------------|
---------------------------------------------------|
---------------------------------------------------|
-8-8-8-8-8-8-8--5-5-5-5--5-5-5-5--6-6-6-6--3-3-3-3-|
-6-6-6-6-6-6-6--3-3-3-3--5-5-5-5--6-6-6-6--3-3-3-3-|
-6-6-6-6-6-6-6--3-3-3-3--3-3-3-3--4-4-4-4--1-1-1-1-|
Guitar 2
----------------------------------------------|
----------------------------------------------|
-10--10--10--12--8--7--8--3--5--8--7--10--8~~-|
----------------------------------------------|
----------------------------------------------|
----------------------------------------------|

Guitar 1
|----------------------------------------------------------------------|
|----------------------------------------------------------------------|
|-8-8-8-8-8-8-8\5-5-5-5------------------------------------------------|
|-8-8-8-8-8-8-8\5-5-5-5-5-5-5-5-5--8-8-8-8-8-8-8-8--5-5-5-5--6-6-6-6-6-|
|-6-6-6-6-6-6-6\3-3-3-3-5-5-5-5-5--6-6-6-6-6-6-6-6--3-3-3-3--6-6-6-6-6-|
|-----------------------3-3-3-3-3--6-6-6-6-6-6-6-6--3-3-3-3--4-4-4-4-4-|
Guitar 2
|----------------------------------------------------------------------|
|----------------------------------------------------------------------|
|-8-8-8-8-8-8-8-8-8-8-8---10-8------8-8-8-8-8-8-8-8-8-8-8-8---10-8-----|
|----------------------------------------------------------------------|
|----------------------------------------------------------------------|
|----------------------------------------------------------------------|

Guitar 1
----------------------------------------------------------------------|
----------------------------------------------------------------------|
---------------------------------------------------8~~~~~~~~~~~~~~~~~~|
-8-8-8-8-8-8-8--5-5-5-5--5-5-5-5--6-6-6-6--3-3-3-3-8~~~~~~~~~~~~~~~~~~|
-6-6-6-6-6-6-6--3-3-3-3--5-5-5-5--6-6-6-6--3-3-3-3-6~~~~~~~~~~~~~~~~~~|
-6-6-6-6-6-6-6--3-3-3-3--3-3-3-3--4-4-4-4--1-1-1-1-6~~~~~~~~~~~~~~~~~~|
Guitar 2                                           ^Sustained with tremolo
---------------|
---------------|
-8-8-8-8-8-8-8-|
---------------|
---------------|
---------------|
Suggest correction
What's this?
You can suggest a correction to this tab. Community and Mods will review your correction and vote to approve or reject it.
comments
print report bad tab
guest
You may want to rate the tab now too:
select rating
Please do not post tabs as comments. Select "correction" instead!