Oops, an error
Loading. Please wait.

Free Me Bass Tab

version 1
version 1

Whole song

Interactive

1,585 views 1 this week
no commentswrite comment
1 2 3 4 5
2 more votes to show rating
add to favorites
launch autoscroll
font size
0
reset
guitar tuner
Autoscroll
slow
fast
+/-
esc
set tempo
stop
Help us to improve Ultimate-Guitar.com Take our survey!
×
Author
Difficulty
novice
(bass tab from fftabs)


Foo Fighters - Free Me
Album: 2005 - In Your Honor
Instrument: Bass
Tuning: Standard

Intro is on guitar etc.

-Verse-

G|----------------------------|
D|----------------------------|
A|----------------------------|
E|-0-0-7-0-6-5--0-0-7-0-6-5---|


G|-------------------------------------------|
D|-------------------------------------------|
A|---------7---------7---------7-------------|
E|-0-0-7-0---0-0-7-0---0-0-7-0---0-0-7-0-6-5-| played multiple times

G|--------------|
D|--------------|
A|--------------|
E|-0-0-7-0-6-5--|

-Chorus-

*play multiple times

G|----------------------------|
D|----------------------------|
A|----------------------------|
E|-3*----5*----4*----0*-------|

-Bridge-

Goes back into verse after a short bassless section, and then back 
into chorus after that. Then into this bridge.

G|----------------------------|
D|----------------------------|
A|----------------------------|  x2
E|-8*----10*----5*------------|

It might sound better played on its corresponding notes on the A string,
ie A3 and A5.

G|----------------------------|
D|----------------------------|
A|----------------------------| X1
E|-7-7-6-6-3-3-3-0------------|

Then goes back into verse, then chorus again etc. you'll work it out.

(bass tab from fftabs)
Suggest correction
Give kudos to tab author, rate the tab!
1 2 3 4 5
comments
print report bad tab
guest
You may want to rate the tab now too:
select rating
Wanna post a correction for this tab? Suggest correction